Oops, an error
Loading. Please wait.

Alright For Now tab

version 3
version 3

Whole song

Interactive

289 views 3 this week
no commentswrite comment
1 2 3 4 5
3 more votes to show rating
add to favorites
×
Save as Personal and add changes to this tab that will be seen only by you. Learn more ›
×
You can save this tab as Personal to edit and correct it or add notes. All changes will be seen only by you. Learn more »
launch autoscroll
font size
0
reset
how to read this tab
guitar tuner
edit
Autoscroll
slow
fast
+/-
esc
set tempo
stop
  Goodnight,        baby.             Sleep tight       my love.
e|--------5--------|--------5--------|--------5--------|--------3--------|
B|----0-------0----|----0-------0----|----0-------0----|----0-------0----|
G|--0---0---0---0--|--0---0---0---0--|--0---0---0---0--|--0---0---0---0--|
D|4----------------|4----------------|4----------------|2----------------|
A|-----------------|-----------------|-----------------|-----------------|
E|-----------------|-----------------|-----------------|-----------------|

  May God watch     over              you   from    above.
e|--------5--------|--------5--------|--------3---------------5---------|
B|----0-------0----|----0-------0----|----------------------------0-----|
G|--0---0---0---0--|--0---0---0---0--|----0---------------0-----0---0---|
D|4----------------|4----------------|--2---2---2-------4---4-----------|
A|-----------------|-----------------|3-----------3-3/5-----------------|
E|-----------------|-----------------|----------------------------------|

                    Tomorrow  I'm  working what would   I do.
e|--------5--------|--------5--------|--------5--------|--------3--------|
B|----0-------0----|----0-------0----|----0-------0----|----0-------0----|
G|--0---0---0---0--|--0---0---0---0--|--0---0---0---0--|--0---0---0---0--|
D|4----------------|4----------------|4----------------|2----------------|
A|-----------------|-----------------|-----------------|-----------------|
E|-----------------|-----------------|-----------------|-----------------|

  I'd be  lost      and lonely         If    not   for you.        
e|--------5--------|--------5--------|--------3-------------5------------|
B|----0-------0----|----0-------0----|--------------------------0--------|
G|--0---0---0---0--|--0---0---0---0--|----0-------------0-----0---0------|
D|4----------------|4----------------|--2---2---------4---4--------------|
A|-----------------|-----------------|3---------3-3/5--------------------|
E|-----------------|-----------------|-----------------------------------|

                                                        So close
e|--------5--------|--------5--------|--------5--------|--------7--------|
B|----0-------0----|----0-------0----|----0-------0----|----7-------7----|
G|--0---0---0---0--|--0---0---0---0--|--0---0---0---0--|--7---7---7---7--|
D|4----------------|4----------------|4----------------|5----------------|
A|-----------------|-----------------|-----------------|-----------------|
E|-----------------|-----------------|-----------------|-----------------|

                    your eyes.        We're al-         right,
e|--------7--------|--------5--------|--------7--------|--------7--------|
B|----7-------7----|----0-------0----|----7-------7----|----7-------7----|
G|--7---7---7---7--|--0---0---0---0--|--7---7---7---7--|--7---7---7---7--|
D|5----------------|4----------------|5----------------|5----------------|
A|-----------------|-----------------|-----------------|-----------------|
E|-----------------|-----------------|-----------------|-----------------|

  for now.                 
e|--------3--------|--------3--------|--------3--------|
B|------------0----|----0-------0----|----0------------|
G|----0-----0---0--|--0---0---0---0--|--0---0----------|
D|--2---2----------|2----------------|2----------------|
A|3----------------|-----------------|-----------------|
E|-----------------|-----------------|-----------------|

  I've spent my life travelin'        spent my life     free
e|--------5--------|--------5--------|--------5--------|--------3--------|
B|----0-------0----|----0-------0----|----0-------0----|----0-------0----|
G|--0---0---0---0--|--0---0---0---0--|--0---0---0---0--|--0---0---0---0--|
D|4----------------|4----------------|4----------------|2----------------|
A|-----------------|-----------------|-----------------|-----------------|
E|-----------------|-----------------|-----------------|-----------------|

  I can not re-     pay all           you've done  for me.
e|--------5--------|--------5--------|--------3---------------5---------|
B|----0-------0----|----0-------0----|----------------------------0-----|
G|--0---0---0---0--|--0---0---0---0--|----0---------------0-----0---0---|
D|4----------------|4----------------|--2---2---2-------4---4-----------|
A|-----------------|-----------------|3-----------3-3/5-----------------|
E|-----------------|-----------------|----------------------------------|

                    So sleep tight    baby        un-  furrow your brow.
e|--------5--------|--------5--------|--------5--------|--------3--------|
B|----0-------0----|----0-------0----|----0-------0----|----0-------0----|
G|--0---0---0---0--|--0---0---0---0--|--0---0---0---0--|--0---0---0---0--|
D|4----------------|4----------------|4----------------|2----------------|
A|-----------------|-----------------|-----------------|-----------------|
E|-----------------|-----------------|-----------------|-----------------|

  And know I           love you,      we're alright for now.
e|--------5--------|--------5--------|--------3---------------5----------|
B|----0-------0----|----0-------0----|----------------------------0------|
G|--0---0---0---0--|--0---0---0---0--|----0---------------0-----0---0----|
D|4----------------|4----------------|--2---2---2-------4---4------------|
A|-----------------|-----------------|3-----------3-3/5------------------|
E|-----------------|-----------------|-----------------------------------|

  We're al                  right for now.
e|--------3--------|--------3-------------5|
B|------------0----|-----------------------|
G|----0-----0---0--|----0-------------0----|
D|--2---2----------|--2---2---------4---4--|
A|3----------------|3---------3-3/5--------|
E|-----------------|-----------------------|

            
            
Suggest correction
Creating personal tab
Creating personal tab
You can edit any tab online and save it as your Personal.

You can edit, replace or remove any tab part or add personal notes – all changes will be seen only by you.

Personal tabs can be accessed anytime from any device, even offline.
Learn more »
Give kudos to tab author, rate the tab!
1 2 3 4 5
comments
print report bad tab
guest
Wanna post a correction for this tab? Suggest correction