Oops, an error
Loading. Please wait.

You Got Lucky chords

version 1
version 1

Whole song

Interactive

32,197 views 72 this week
2 commentsread comments
1 2 3 4 5
x 16
add to favorites
×
Save as Personal and add changes to this tab that will be seen only by you. Learn more ›
×
You can save this tab as Personal to edit and correct it or add notes. All changes will be seen only by you. Learn more »
launch autoscroll
font size
0
reset
transpose
0
reset
display chords
guitar tuner
edit
Autoscroll
slow
fast
+/-
esc
set tempo
stop
Strumming
There is no strumming pattern for this song yet. and get +5 IQ
#----------------------------------PLEASE NOTE---------------------------------#
#This file is the author's own work and represents their interpretation of the #
#song. You may only use this file for private study, scholarship, or research. #
#------------------------------------------------------------------------------##
Date: Fri, 29 Sep 95 14:01:16 EDT
From: Winston Campbell 
Subject: YOU GOT LUCKY by Tom Petty & The Heartbreakers


You Got Lucky
        (words & music by Tom Petty and Mike Campbell)


Basically the intro synth plays:

   Am                       Dm          G

E -5--5--5--5--5--5--5--5-|-5--5--5--5--3--3--3--3-|
B -5--5--5--5--5--5--5--5-|-6--6--6--6--3--3--3--3-|
G -5--5--5--5--5--5--5--5-|-7--7--7--7--4--4--4--4-|
D -7--7--7--7--7--7--7--7-|-------------5--5--5--5-|
A ------------------------|------------------------|
E ------------------------|------------------------|

(Intro chords)
You better watch what you say
You better watch what you do to me
Don~t get carried away
Girl, if you can do better than me
Am
Go
      F
Yeah, go
But remember
C            Am
Good love is hard to find
C            Am
Good love is hard to find
        F
You got lucky, babe
        G
You got lucky, babe
             (Intro chords)
When I found you

(Intro chords)
You put an end on my tear
And then you turn your eyes away
If you don~t feel complete
If I don~t take you all of the way
     Am
Then go,
      F
Yeah, go,
But remember
C            Am
Good love is hard to find
C            Am
Good love is hard to find
        F
You got lucky, babe
        G
You got lucky, babe
             (Intro chords)
When I found you


The guitar solo is (during the intro chords):

   Am                    Dm     G         Am                 Dm      G

E --------------------------------------|---------------------------------|
B --------------------------------------|---------------------------------|
G --------------------------------------|---------------------------------|
D ------5--7----------------------------|------5--7-----------------------|
A -7~---------7~---5--3--5~---3-2--3--5-|-7~---------7~---5--3--2--0------|
E --------------------------------------|----------------------------3~~--|

The (~) means to sustain the note, the (~~) means to sustain and keep it
warply tremoloed.

     Am
Yeah go,
      F
Just, go,
But remember
C            Am
Good love is hard to find
C            Am
Good love is hard to find
        F
You got lucky, babe
        G
You got lucky, babe
             (Intro chords)
When I found you


After this the song pretty much goes on through the intro chords, the final
Mike Campbell (sorta) solo is:

   Am                    Dm     G       Am                   Dm   G

E ------------------------------------|-----------------------------|
B ------------------------------------|-----------------------------|
G ------------------------------------|----------------5--7--7b-----|
D ------5--7--------------------------|------5--7-------------------|
A -7~---------7~---5--3--5~-----------|-7~---------7~---------------|
E ------------------------------------|-----------------------------|


The song fades out on this and that is about it.


            
            
Suggest correction
Creating personal tab
Creating personal tab
You can edit any tab online and save it as your Personal.

You can edit, replace or remove any tab part or add personal notes – all changes will be seen only by you.

Personal tabs can be accessed anytime from any device, even offline.
Learn more »
comments
print report bad tab
2 comments total.
0 reply
comaboy 10 Aug 12, 2010 07:21 PM

Good tab Winston!

0 reply
maguri [tm] 32,646 May 20, 2011 08:16 AM

Nice tab, great song!
Here's my suggestion for the synth part:

capo 5th fret (key is still A)

Em(add9)         Em               Asus2   A(no3rd) Dsus4 D Dsus2 Dsus4        
E 2---2---2---2---|0---0---0---0---|0---0---0-------|3---2---0---3---|
B 0---0---0---0---|0---0---0---0---|0---0---5---5---|3---3---3-3-3---|
G 0---0---0---0---|0---0---0---0---|2---2---2---2---|2---2---2---2---|
D 2---2---2---2---|2---2---2---2---|2-------2---2---|0-------0-------|
A 2---------------|2---------------|0-------0-------|----------------|
E 0---------------|0---------------|----------------|----------------|

guest
Wanna post a correction for this tab? Suggest correction