Oops, an error
Loading. Please wait.
130 views 9 this week
no commentswrite comment
1 2 3 4 5
2 more votes to show rating
add to favorites
×
Save as Personal and add changes to this tab that will be seen only by you. Learn more ›
×
You can save this tab as Personal to edit and correct it or add notes. All changes will be seen only by you. Learn more »
launch autoscroll
font size
0
reset
guitar tuner
edit
Autoscroll
slow
fast
+/-
esc
set tempo
stop
About this tab version
Fully written out tab. No repeats. Was this info helpful? Yes No
[Intro: enter at :14]

G|-------5-----0---|-(0)-------------|-2-----2---2-----|-----------------|
D|-----------------|-----------------|-------------3---|-(3)-------------|
A|-3---------------|-----------------|-----------------|-----------------|
E|-----------------|-----------------|-----------------|-----------------|

G|-------5-----0---|-(0)-----------0-|-2-----2---2-----|-----------------|
D|-----------0-----|-----------------|-------------3---|-(3)-------------|
A|-3---------------|-----------------|-----------------|-----------------|
E|-----------------|-----------------|-----------------|-----------------|


[Verse]

G|-----------------|-5-----------0---|-2-------------0-|-2---------------|
D|---------------5-|-----------------|-----------------|-----------------|
A|-3---------------|-----------------|-----------------|-----------------|
E|-----------------|-----------------|-----------------|-----------------|

G|-----------------|-5-----------0---|-2-------------0-|-2---------------|
D|---------------5-|-----------------|-----------------|---------------7\|
A|-3---------------|-----------------|-----------------|-----------------|
E|-----------------|-----------------|-----------------|-----------------|

G|-----------------|-----------------|-----------------|-----------------|
D|-3---------------|-5---------------|-3---------------|-5---------------|
A|---------------3-|---------------3-|---------------3-|---------------3-|
E|-----------------|-----------------|-----------------|-----------------|

G|-----------------|-----------------|-----------------|-----------------|
D|-3---------------|-5---------------|-3---------------|-5---------------|
A|---------------3-|---------------3-|---------------3-|-----------------|
E|-----------------|-----------------|-----------------|-----------------|


[Chorus]

G|-----------------|-----------------|-----------------|-----------------|
D|-7---------------|-7---------------|-----------------|-----------------|
A|-----------------|-----------------|-3---------------|-3---------------|
E|-----------------|-----------------|-----------------|-----------------|

G|-----------------|-----------------|-----------------|-------------5---|
D|-7---------------|-7---------------|-----------------|-------5---------|
A|-----------------|-----------------|-3---------------|-3---------------|
E|-----------------|-----------------|-----------------|-----------------|

G|-----------------|-----------------|-----------------|-----------------|
D|-3---------------|-5---------------|-3---------------|-5---------------|
A|---------------3-|-----------------|---------------3-|-----------------|
E|-----------------|-----------------|-----------------|-----------------|

G|-----------------|-----------------|-----------------|-5---------------|
D|-7---------------|-7---------------|-----------------|-------5---------|
A|-----------------|-----------------|-3---------------|-------------5---|
E|-----------------|-----------------|-----------------|-----------------|


[Verse]

G|-----------------|-5-----------0---|-2-------------0-|-2---------------|
D|---------------5-|-----------------|-----------------|-----------------|
A|-3---------------|-----------------|-----------------|-----------------|
E|-----------------|-----------------|-----------------|-----------------|

G|-----------------|-5-----------0---|-2-------------0-|-2---------------|
D|---------------5-|-----------------|-----------------|---------------7\|
A|-3---------------|-----------------|-----------------|-----------------|
E|-----------------|-----------------|-----------------|-----------------|

G|-----------------|-----------------|-----------------|-----------------|
D|-3---------------|-5---------------|-3---------------|-5---------------|
A|---------------3-|---------------3-|---------------3-|---------------3-|
E|-----------------|-----------------|-----------------|-----------------|

G|-----------------|-----------------|-----------------|-----------------|
D|-3---------------|-5---------------|-3---------------|-5---------------|
A|---------------3-|---------------3-|---------------3-|-----------------|
E|-----------------|-----------------|-----------------|-----------------|


[Chorus]

G|-----------------|-----------------|-----------------|-5-----5-------5-|
D|-7---------------|-7---------------|-----------------|-----------3-5---|
A|---------------7-|-----------------|-3---------------|-----------------|
E|-----------------|-----------------|-----------------|-----------------|

G|-----------------|-----------------|-----------------|-------------5---|
D|-7---------------|-7---------------|-----------------|-------5---------|
A|---------------7-|-----------------|-3---------------|-3---------------|
E|-----------------|-----------------|-----------------|-----------------|

G|-----------------|-----------------|-----------------|-----------------|
D|-3---------------|-5---------------|-3---------------|-5---------------|
A|---------------3-|---------------3-|---------------3-|-----------------|
E|-----------------|-----------------|-----------------|-----------------|

G|-----------------|-----------------|-----------------|-5---------------|
D|-7---------------|-7---------------|-----------------|-------5---------|
A|---------------7-|-----------------|-3---------------|-------------5---|
E|-----------------|-----------------|-----------------|-----------------|


[Bridge with trumpet]

G|-----------------|-----------------|-----------------|-----------------|
D|-3---------------|-(3)-------------|-3---------------|-(3)-------------|
A|-----------------|---------------3-|-----------------|-----------------|
E|-----------------|-----------------|-----------------|-----------------|

G|-----------------|-----------------|-----------------|-----------------|
D|-----------------|-----------------|-----------------|-------5---------|
A|-3---------------|-(3)-------------|-3---------------|-3-----------3---|
E|-----------------|-----------------|-----------------|-----------------|

G|-----------------|-----------------|-----------------|-----------------|
D|-3---------------|-(3)-------------|-3---------------|-(3)-------3-7-7-|
A|-----------------|---------------3-|-----------------|-----------------|
E|-----------------|-----------------|-----------------|-----------------|

G|-----------------|-----------------|-----------------|-----------------|
D|-5---------------|-5---------------|-5---------------|-5---------------|
A|---------------3-|---------------3-|---------------3-|-----------------|
E|-----------------|-----------------|-----------------|-----------------|


[Verse]

G|-----------------|-----------------|-----------------|-----------------|
D|-----------------|-----------------|-7---------------|-(7)-------------|
A|-3---------------|-(3)-------------|-----------------|-----------------|
E|-----------------|-----------------|-----------------|-----------------|

G|-5---------------|-(5)-----7-/-9---|-----------------|-----------------|
D|-----------------|-----------------|-7---------------|-(7)---------7\--|
A|-----------------|-----------------|-----------------|-----------------|
E|-----------------|-----------------|-----------------|-----------------|

G|-----------------|-----------------|-----------------|-----------------|
D|-3---------------|-5---------------|-3---------------|-5---------------|
A|---------------3-|---------------3-|---------------3-|---------------3-|
E|-----------------|-----------------|-----------------|-----------------|

G|-----------------|-----------------|-----------------|-----------------|
D|-3---------------|-5---------------|-3---------------|-5---------------|
A|---------------3-|---------------3-|---------------3-|-----------------|
E|-----------------|-----------------|-----------------|-----------------|


[Chorus]

G|-----------------|-----------------|-----------------|-----------------|
D|-7---------------|-7---------------|-----------------|-----------------|
A|-----------------|-----------------|-3---------------|-3---------------|
E|-----------------|-----------------|-----------------|-----------------|

G|-----------------|-----------------|-----------------|-----------------|
D|-7---------------|-7---------------|-----------------|-----------------|
A|-----------------|-----------------|-3---------------|-3---------------|
E|-----------------|-----------------|-----------------|-----------------|

G|-----------------|-----------------|-----------------|-----------------|
D|-3---------------|-5---------------|-3---------------|-5---------------|
A|---------------3-|-----------------|---------------3-|-----------------|
E|-----------------|-----------------|-----------------|-----------------|

G|-----------------|-----------------|-----------------|-----------------|
D|-7---------------|-7---------------|-----------------|-----------------|
A|-----------------|-----------------|-3---------------|-3-----5-----3---|
E|-----------------|-----------------|-----------------|-----------------|


[Intro reprise]

G|-----------------|-----------------|-----------------|-----------------|
D|-----------------|-----------------|-----------------|-------------3/5-|
A|-3r--------------|-----------------|-----------------|-----------------|
E|-----------------|-----------------|-----------------|-----------------|

G|-5-----7-/-9-7---|-(7)---------7-\-|-2-----5---\-----|-----------------|
D|-----------------|-----------------|-------------3---|-(3)-------------|
A|-----------------|-----------------|-----------------|-----------------|
E|-----------------|-----------------|-----------------|-----------------|

G|-------5-----0---|-(0)-------------|-2-----2---2-----|-----------------|
D|-----------------|-----------------|-------------3---|-(3)-------------|
A|-3---------------|-----------------|-----------------|-----------------|
E|-----------------|-----------------|-----------------|-----------------|

G|-------5-----0---|-(0)-----------0-|-2-----2---2-----|-----------------|
D|-----------0-----|-----------------|-------------3---|-(3)-------------|
A|-3---------------|-----------------|-----------------|-----------------|
E|-----------------|-----------------|-----------------|-----------------|

G|-----------------|-----------------|
D|-5---------------|-----------------|
A|---------------5-|-----------------|
E|-----------------|-3---------------|


[Outro/Chorus]

G|-----------------|-----------------|-----------------|-----------------|
D|-7---------------|-7---------------|-----------------|-----------------|
A|-----------------|-----------------|-3---------------|-3---------------|
E|-----------------|-----------------|-----------------|-----------------|

G|-----------------|-----------------|-----------------|-------5---------|
D|-7---------------|-7---------------|-----------------|-------------5---|
A|-----------------|-----------------|-3-------------5-|-3---------------|
E|-----------------|-----------------|-----------------|-----------------|

G|-----------------|-----------------|-----------------|-----------------|
D|-3---------------|-5---------------|-3---------------|-5---------------|
A|---------------3-|-----------------|---------------3-|-----------------|
E|-----------------|-----------------|-----------------|-----------------|

G|-----------------|-----------------|-----------------|-----------------|
D|-7---------------|-7---------------|-----------------|-----------------|
A|-----------------|-----------------|-3---------------|-3-----5-----3---|
E|-----------------|-----------------|-----------------|-----------------|

G|-----------------|-----------------|-------------5---|-9h10-9h10-9h10-9h10-|
D|-7---------------|-7---------------|-------5---------|---------------------|
A|-----------------|-----------------|-3---------------|---------------------|
E|-----------------|-----------------|-----------------|---------------------|

G|-----------------|-----------------|-----------------|-----------------|
D|-7---------------|-----------------|-----------------|-----------------|
A|-----------------|-----------------|-3---------------|-3---------------|
E|-----------------|-5---------------|-----------------|-----------------|

G|-----------------|---------5-------|-----------------|-5---------------|
D|-7---------------|-7---------7-5---|-----------------|-------5---------|
A|-----------------|---------------7-|-3-------------3-|-------------5---|
E|-----------------|-----------------|-----------------|-----------------|

G|-----------------|-----------------|-----------------|-5---5-----------|
D|-7---------------|-7---------------|-----------------|-------------5---|
A|-----------------|-------------2---|-3---------------|---3-------3-----|
E|-----------------|-------5---------|-----------------|-----------------|

G|-----------------|-----------------|-----------------|-------4-----5---|
D|-7---------------|-7---------------|-------------3---|-5---------------|
A|-----------------|-----------------|-3-----5---------|-----------------|
E|-----------------|-----------------|-----------------|-----------------|

G|-----------------|-----------------|-----------------|-----------------| Fade out
D|-7---------------|-7---------------|-----------------|-----------------|
A|-----------------|-----------------|-3---------------|-3---------------|
E|-----------------|-----------------|-----------------|-----------------|


************************************

| (n) Ghost note
| h   Hammer-on
| r   Release
| /   Slide up
| \   Slide down

************************************

            
            
Suggest correction
Creating personal tab
Creating personal tab
You can edit any tab online and save it as your Personal.

You can edit, replace or remove any tab part or add personal notes – all changes will be seen only by you.

Personal tabs can be accessed anytime from any device, even offline.
Learn more »
Give kudos to tab author, rate the tab!
1 2 3 4 5
comments
print report bad tab
guest
You may want to rate the tab now too:
select rating
Wanna post a correction for this tab? Suggest correction