Oops, an error
Loading. Please wait.

Wie Siehts Aus In Hamburg tab

version 1
version 1

Whole song

Interactive

by Tomte
3,274 views 1 this week
no commentswrite comment
1 2 3 4 5
1 last vote to show rating
add to favorites
×
Save as Personal and add changes to this tab that will be seen only by you. Learn more ›
×
You can save this tab as Personal to edit and correct it or add notes. All changes will be seen only by you. Learn more »
launch autoscroll
font size
0
reset
how to read this tab
guitar tuner
edit
Autoscroll
slow
fast
+/-
esc
set tempo
stop
Author
Intro: Am F C    2x

Strophe:
Am
wie sieht's aus in hamburg?
        F                C
ist das wetter noch intensiv
Am
sind die bars noch laut wie kriege
             F              C
weißt du mit wem du gestern schliefst
Am
du bist ein hübscher junge 
   F             C
in einem schönen quartier
Am
fühl dich einmal wie ein könig
                          F             C
ich weiß heute nacht geht jemand mit zu dir

e|-------------------------------------------------------------------|
B|---88-55-----------------------------------------------------------|
G|---------77--55----------5---5----5--------------------------------| 2x   (mit Am F C )
D|----------------77-55-77--757---57---------------------------------|
A|-------------------------------7-----------------------------------|
E|-------------------------------------------------------------------|

Am
wie sieht's aus in hamburg?
	  F		    C
ein neues viertel an einem tag
Am
wer ist pleite wer ist fertig
	F		   C
und wer hat es ans ufer geschafft
F	     G		     Am		F
& alle 20 minuten denkst du an elliott smith
F	    G			Am
alle 100 jahre kommt jemand wie ich und nimmt dich mit


Refrain:
Am                   C
wie sieht's jetzt in hamburg aus?
F     Am     F          Am
halte durch, genieß die sicht, 
F               G
die du von hier oben hast
Am             C      
öffne dich nur einen spalt
F              Am     F                Am
verwundere die stadt, sag alles was du hast
      F                      G        Am
deine geschichte die auf ein reiskorn passt




Am                                 F              C
ich rauche aus dem fenster in die tiefe dieser nacht
Am
alles verschwimmt vor deinen augen
           F		C
und wir bleiben lange wach
	F		G
da sind 100 die dich lieben
	Am			F
wir zwingen die zukunft zu funktionieren
F		G
& ich habe eine frage an dich...



Refrain:
Am                   C
wie sieht's jetzt in hamburg aus?
F     Am     F          Am
halte durch, genieß die sicht, 
F               G
die du von hier oben hast
Am             C      
öffne dich nur einen spalt
F              Am     F                Am
verwundere die stadt, sag alles was du hast
      F                      G        Am
deine geschichte die auf ein reiskorn passt

e|-------------------------------------------------------------------|
B|---88-55-----------------------------------------------------------|
G|---------77--55----------5---5----5--------------------------------| 2x	(mit Am F C )
D|----------------77-55-77--757---57---------------------------------|
A|-------------------------------7-----------------------------------|
E|-------------------------------------------------------------------|


e|-------------------------------------------------------------------|
B|---88-55-------88-55-------88-55--------------------88-55------5~--|
G|---------77-55-------77-55-------77-55-77-55----55--------77-57----| 1x	(mit F C F G Am F F G ) 
D|---------------------------------------------57--------------------|
A|-------------------------------------------------------------------|
E|-------------------------------------------------------------------|

            
            
Suggest correction
Creating personal tab
Creating personal tab
You can edit any tab online and save it as your Personal.

You can edit, replace or remove any tab part or add personal notes – all changes will be seen only by you.

Personal tabs can be accessed anytime from any device, even offline.
Learn more »
Give kudos to tab author, rate the tab!
1 2 3 4 5
comments
print report bad tab
guest
You may want to rate the tab now too:
select rating
Wanna post a correction for this tab? Suggest correction