Oops, an error
Loading. Please wait.

Unbreak My Heart chords

version 4
version 4

Whole song

Interactive

457 views 30 this week
no commentswrite comment
1 2 3 4 5
2 more votes to show rating
add to favorites
×
Save as Personal and add changes to this tab that will be seen only by you. Learn more ›
×
You can save this tab as Personal to edit and correct it or add notes. All changes will be seen only by you. Learn more »
launch autoscroll
font size
0
reset
transpose
0
reset
simplify chords
display chords
guitar tuner
edit
Autoscroll
slow
fast
+/-
esc
set tempo
stop
About this tab version
Intro and solo tab included in this version for acoustic playing. Was this info helpful? Yes No
Strumming
There is no strumming pattern for this song yet. and get +5 IQ
[Intro]

    F#7         Bm                      Em7       A
e|------------------------------2--3--|-----------------------------------------|
B|------0---2---3---------3--5--------|----------0--2/3--3-----2--0----------0--|
G|--3----------------4----------------|-----0-------------------------2--3------|
D|-----------------4------------------|---2-------------------------------------|
A|--------------2------2--------------|-------------0-------0--0----0-----------|
E|--2---------------------------------|-2-----2---------------------------------|

    F#7              G     A/G                    F#7
e|-----------------------|------------------------------------2------2----------|
B|-----------0---2---0---|-2----0h2h3p0---2----0--2---------2---2----2----------|
G|------3--------------0-|----2---------0----2------------3-------3--3----------|
D|----2------------------|------------------------------2------------2----------|
A|-----------------------|----------------------------4--------------4----0---2-|
E|--2------2---------3---|-5--------------5-------2--2---------------2----------|


[Verse 1]

Bm             Em                           A
Don't leave me in all this pain, don't leave me out in the rain.
Bm                   Em                         A               F#7
Come back and bring back this smile, come and take these tears away.
Bm                         Em                   A
I need your arms to hold me now, the nights are so unkind.
Bm                   Em                             A
Bring back those nights when I held you beside me.


[Chorus]

A7          Dm    Gm7                   C
Unbreak my heart, say you'll love me again.
A7            Dm                                 Gm7                    C
Undo this hurt you caused when you walked out the door and walked out of my life.
A7           Dm          Gm7             C
Uncry these tears, I've cried so many nights.
A7           A     Bb       A7    F#7
Unbreak my heart..... My heart.


[Verse 2]

Bm              Em                         A
Take back that sad word goodbye, bring back the joy to my life.
Bm                   Em                           A            F#7
Don't leave me here with these tears, come and kiss this pain away.
Bm                      Em                 A
I can't forget the day we laughed, time is so unkind.
Bm                Em                             A
And life is so cruel without you here beside me.


[Chorus]

A7          Dm    Gm7                   C
Unbreak my heart, say you'll love me again.
A7            Dm                                 Gm7                    C
Undo this hurt you caused when you walked out the door and walked out of my life.
A7           Dm          Gm7             C
Uncry these tears, I've cried so many nights.
A7           A     Bb      A7    F#7
Unbreak my heart...... Ahhhhh hooooooo


[Instrumental]

e|------------6-6s7-6-4-7----------------------------------------------|
B|--------2-4--------------5--------7~--9--9/11--9-11-9\7--9/11-4------|
G|--1-3-4---------------------6-8/9------------------------------------|
D|---------------------------------------------------------------------|
A|---------------------------------------------------------------------|
E|---------------------------------------------------------------------|

e|--4--6--6/7---4-6-7-9-9/11-11\4---4-7h9p7p6-4-6-2---6-7-9-7-6-7/9-7--|
B|---------------------------------------------------------------------|
G|---------------------------------------------------------------------|
D|---------------------------------------------------------------------|
A|---------------------------------------------------------------------|
E|---------------------------------------------------------------------|


[Bridge]

Bm             Em                      A
Don't leave me in all this pain, don't leave me out in the rain.
Bm              Em                                A
Bring back the nights when I held you beside me.


[Chorus]

            Dm    Gm7                   C
Unbreak my heart, say you'll love me again.
A7            Dm                                 Gm7                    C
Undo this hurt you caused when you walked out the door and walked out of my life.
A7           Dm          Gm7                 C
Uncry these tears, I've cried so many, many nights.
A7
Unbreak my.......
Dm          Gm7                   C              A7
Unbreak my heart oh baby come back and say that you love me.
Dm              Gm7                        C               A7
Unbreak my heart sweet darling, without you I just can't go on.
Dm                    Gm7                    C                    A7                     A
Say that you love me, say that you love me, tell me you love me, unbreak my... (fade out)


************************************

| h   Hammer-on
| p   Pull-off
| /   Slide up
| \   Slide down

************************************

            
            
Suggest correction
Creating personal tab
Creating personal tab
You can edit any tab online and save it as your Personal.

You can edit, replace or remove any tab part or add personal notes – all changes will be seen only by you.

Personal tabs can be accessed anytime from any device, even offline.
Learn more »
Give kudos to tab author, rate the tab!
1 2 3 4 5
comments
print report bad tab
guest
You may want to rate the tab now too:
select rating
Wanna post a correction for this tab? Suggest correction