Oops, an error
Loading. Please wait.

Unbreak My Heart chords

version 1
version 1

Whole song

Interactive

67,225 views 249 this week
1 commentread comment
1 2 3 4 5
x 10
add to favorites
×
Save as Personal and add changes to this tab that will be seen only by you. Learn more ›
×
You can save this tab as Personal to edit and correct it or add notes. All changes will be seen only by you. Learn more »
launch autoscroll
font size
0
reset
transpose
0
reset
display chords
guitar tuner
edit
Autoscroll
slow
fast
+/-
esc
set tempo
stop
Author
Unregistered
Strumming
There is no strumming pattern for this song yet. and get +5 IQ
[Intro] Bm-Em-A-F

e|-----------------------------------------------------------------|
B|-----------------7-8--------7-----------------------------5s7----| Bm-C-A
G|--3-4-6-7--7-7-9------7-7-9----6--6~--4~--4~---3~---3-4-5--------|
D|-----------------------------------------------------------------|
A|-----------------------------------------------------------------|
E|-----------------------------------------------------------------|

[Verse 1](Arpegiate All Chords)
Bm             Em                 A                         F#
Don't leave me in all this pain, don't leave me out in the rain.
Bm                   Em                        A                     F#
Come back and bring back this smile, come and take these tears away.
   Bm                Em               A               F#
I need your arms to hold me now, the nights are so unkind.
Bm                Em                       A
Bring back those nights when I held you beside me.

[Chrous]
F#           Dm    Gm                   C
Un~Break my heart, say you'll love me again.
A           Dm                       Gm                            C
Un~do this hurt you caused when you walked out the door and walked out of my life.
A            Dm          Gm             C
Un~cry these tears, I've cried so many nights.
A            Dm         A        F#
Un~Break my heart..... My heart.

[Verse 2]
Bm              Em              A                F#
Take back that sad word goodbye, bring back the joy to my life.
Bm              Em                              A               F#
Don't leave me here with these tears, come and kiss this pain away.
   Bm               Em              A            F#
I can't forget the day we laughed, time is so unkind.
Bm              Em                       A
And life is so cruel without you here beside me.

[Chrous]
F#           Dm    Gm                   C
Un~Break my heart, say you'll love me again.
A           Dm                       Gm                            C
Un~do this hurt you caused when you walked out the door and walked out of my life.
A            Dm          Gm             C
Un~cry these tears, I've cried so many nights.
A            Dm         A
Un~Break my heart.....

 [Solo]
e|------------6-6s7-6-4-7--------------------------------------------4--6--6s7--|
B|----------4--------------5--------7~--9--9s11--9-11-9s7--9s11s4---------------|
G|----3-4-6-------------------6-8s9---------------------------------------------|
D|--6---------------------------------------------------------------------------|
A|------------------------------------------------------------------------------|
E|------------------------------------------------------------------------------|

e|----6-7-9-9s11-11s4-----7h9p7p6---6-----6-7-9-7-6-7s9-7--|
B|--9-------------------9---------9---7--------------------|
G|---------------------------------------------------------|
D|---------------------------------------------------------|
A|---------------------------------------------------------|
E|---------------------------------------------------------|

[Bridge]
Bm             Em                 A               F#
Don't leave me in all this pain, don't leave me out in the rain.
Bm              Em                       A
Bring back the nights when I held you beside me.

[Chrous]
             Dm    Gm                   C
Un~Break my heart, say you'll love me again.
A           Dm                       Gm                             C
Un~do this hurt you caused when you walked out the door and walked out of my life.
A            Dm           Gm                  C
Un~cry these tears, I've cried so many, many nights.
A
Un~break my.......

Dm           Gm           C              A
Un~break my heart oh baby come back and say that you love me.
Dm          Gm                   C           A
Un~break my heart sweet darling, without you I just can't go on.

Dm                    Gm                    C                    A
Say that you love me, say that you love me, tell me you love me, un~break my.
Dm                    Gm                    C                    A
Say that you love me, say that you love me, tell me you love me, un~break my.
Dm                    Gm                    C                    A
Say that you love me, say that you love me, tell me you love me, un~break my.
Dm                    Gm                    C                    A
Say that you love me, say that you love me, tell me you love me, un~break my....(Fade Out)

            
            
Suggest correction
Creating personal tab
Creating personal tab
You can edit any tab online and save it as your Personal.

You can edit, replace or remove any tab part or add personal notes – all changes will be seen only by you.

Personal tabs can be accessed anytime from any device, even offline.
Learn more »
comments
print report bad tab
1 comment total.
0 reply
totim 199 Nov 02, 2010 03:11 AM

i love this song............
this is the last part.....
...i just can't go on...
|---------------------------------
|----9-11-----------------------------------
|-11------11-9-----------------------------
|--------------12-11-9----------------------
|----------------------12-10-8--10--7-------
|-------------------------------------------

|------------------
|----9-11-------------------
|---------11-9---------------------------
|--------------12-9-----------------/10--8--7--------
|-------------------12-10-12--10--8------------------
|--------------------------------------------
...5 star for you

guest
Wanna post a correction for this tab? Suggest correction