Oops, an error
Loading. Please wait.

Future Says Run tab

by Tonic
1,942 views 1 this week
no commentswrite comment
1 2 3 4 5
2 more votes to show rating
add to favorites
×
Save as Personal and add changes to this tab that will be seen only by you. Learn more ›
×
You can save this tab as Personal to edit and correct it or add notes. All changes will be seen only by you. Learn more »
launch autoscroll
font size
0
reset
how to read this tab
guitar tuner
edit
Autoscroll
slow
fast
+/-
esc
set tempo
stop
Song: "Future Says Run"
Artist: Tonic 
Album: Sugar
By jjhand 
Double Drop D tuning (DADGBD), capo II, everything relative to capo
Guitar 1: Acoustic
Guitar 2: Electric w/ distortion
Guitar 3: Solo Electric

Thanks to Jurgen Krombeen (valkenaer@hotmail.com) for help on the intro.


Intro - Acoustic
       A   Amaj7                                
E  |-0--0--0--0--0--0---------|-0--0--0--0--0--0---------|
C# |-0--0--0--0--0--0---------|-0--0--0--0--0--0---------|
A  |-6--7--7--6-----6h7-------|-6--7--7--6-----6h7-------| 
E  |----------------0---------|----------------0---------| 
B  |-----------------------5--|-----------------------5--|
E  |--------------------------|--------------------------|
     *     *        *   *       *     *    *       * 


Verse riff:  
    Acoustic
E |--------------------------|--------------------------|
C#|-0--0--0--0--0--0--0--0---|--------------------------|
A |-7--7--7--7--7--7--7--7---|---repeat last bar--------|
E |-5--5--5--5--5--5--5--5---|--------------------------|
B |-5--5--5--5--5--5--5--5---|--------------------------|
E |-5--5--5--5--5--5--5--5---|--------------------------|
  |
  | Distorted Electric
E |-0--0--0--0--0------------|-0--0--0--0-0---0---------|
C#|-0--0--0--0--0--0---------|-0--0--0--0-----0---------|
A |-6--7--7--6-----6h7-------|-6--7--7--6-----6h7-------|
E |----------------0---------|----------------0---------|
B |----------------------5---|----------------------5---|
E |--------------------------|--------------------------|




    Acoustic
e |-----------------------|-------------------------||
C#|-12----12---------12---|-12----12------12-12-12--||
A |-11----11---------11---|-11----11------11-11-11--||
E |-9------9----x-x---9---|-9-----9---x-x-9--9--9---||
B |-9------9----x-x---9---|-9-----9---x-x-9--9--9---||
E |-9------9----x-x---9---|-9-----9---x-x-9--9--9---||
  |
  | Dist Electric
e |-----------------------|-------------------------||
C#|-----------------------|-------------------------||
A |-7/9--9---x-9--9/11-11-|-7/9--9---x-9-9/11-11-11-||
E |-----------------------|-------------------------||
B |-5/7--7---x-7--7/9--9--|-5/7--7---x-7--7/9--9--9-||
E |-----------------------|-------------------------||

Play verse 3x with these lyrics:
 
01 Holding lightly words that make you aware
02 Your head's spinning, no one knows you're not there 
03 Blankly staring, strangers call you friend


Prechorus:
    Acoustic
e |-----------------------|-------------------|-----------------|---------------|
C#|-12----12--------12----|-------------------|-----------------|---------------|
A |-11----11--------11----|-------------------|-----------------|---------------|
E |-9-----9----x-x--9---7-|---7--7----7--7--7-|-5-5-5-5-5-5-5-5-|-repeat last bar
B |-9-----9----x-x--9---7-|---7--7----7--7--7-|-5-5-5-5-5-5-5-5-|---------------|
E |-9-----9----x-x--9---7-|---7--7----7--7--7-|-5-5-5-5-5-5-5-5-|---------------|
  |       "The power you own is a power that mends"
  |
  |Electric
e |-----------------------|-------------------|-----------------|---------------|
C#|-----------------------|-------------------|-0---------------|-0h1----0------|
A |-----------------------|-------------------|-0---------------|-0------0------|
E |-11----11-----x-11---9-|---9--9----9--9--9-|-0---------------|-0h2----0------|
B |-9-----9------x--9---7-|---7--7----7--7--7-|-----------------|---------------|
E |-9-----9------x--9---7-|---7--7----7--7--7-|-----------------|---------------|




Chorus -
  
     Acoustic
e |---------------------|------------------------|-0--0-----0---0-|-0---0---0-0--|
C#|-3---3------3--3--3--|-3--3--3--3--3--3--3--3-|-0--0-----0---0-|-0---0---0-0--|
A |-2---2------2--2--2--|-4--4--2--2--0--0--2--2-|-4--4-----4---4-|-2---2---2-2--|
E |-0---0------0--0--0--|-0--0--0--0--0--0--4--4-|-4--4-----4---4-|-2---2---2-2--|
B |-0---0------0--0--0--|-0--0--0--0--0--0--0--0-|-2--2-----2---2-|-0---0---0-0--|
E |-0---0------0--0--0--|-0--0--0--0--0--0--0--0-|----------------|--------------|
  |
  |  Electric 
e |-----7---------------|-------7----------------|----------------|--------------|
C#|---7------8----7-----|----7-----8-----7--8----|-----6b7r6---4--|-2------------|
A |-7----------------7--|-7----------------------|----------------|--------------|
E |---------------------|------------------------|----------------|--------------|
B |---------------------|------------------------|----------------|--------------|
E |---------------------|------------------------|----------------|--------------|
  "You can't go on, no you can't even talk"


    Acoustic
e |---------------------|------------------------|-0--0-----0---0-|-0---0---0-0--|
C#|-3---3------3--3--3--|-3--3--3--3--3--3--3--3-|-0--0-----0---0-|-0---0---0-0--|
A |-2---2------2--2--2--|-4--4--2--2--0--0--2--2-|-4--4-----4---4-|-2---2---2-2--|
E |-0---0------0--0--0--|-0--0--0--0--0--0--4--4-|-4--4-----4---4-|-2---2---2-2--|
B |-0---0------0--0--0--|-0--0--0--0--0--0--0--0-|-2--2-----2---2-|-0---0---0-0--|
E |-0---0------0--0--0--|-0--0--0--0--0--0--0--0-|----------------|--------------|
  |
  | Electric
e |-----7---------------|-7----------------------|----------------|-------------|
C#|---7-----8-----7-----|----8--7--8-----7-------|-----6b7r6---4--|-2-----------|
A |-7----------------7--|-------------------7----|----------------|-------------|
E |---------------------|------------------------|----------------|-------------|
B |---------------------|------------------------|----------------|-------------|
E |---------------------|------------------------|----------------|-------------|
 "Your future says run, but you can't even walk"



Play Verse again 

Play Chorus again



Solo (Guitar 3 with Distortion) - The Verse riff is played behind this

e |-----------------|--------5b7r5--4-|-4h5p4-2-4~------2h4p2p0-|
C#|-2--3---5b7r5--3-|-2--3------------|-------------------------|
A |-----------------|-----------------|-------------------------|
E |-----------------|-----------------|-------------------------|
B |-----------------|-----------------|-------------------------|
E |-----------------|-----------------|-------------------------|

e |-0h2--2p0-0---0h2p0--2-2/4~---|-----------------|--------5b7r5--4-|
C#|---------2---------2----------|-2-3---b6r5--3---|-2-3-------------|
A |------------------------------|-----------------|-----------------|
E |------------------------------|-----------------|-----------------|
B |------------------------------|-----------------|-----------------|
E |------------------------------|-----------------|-----------------|


e |-4h5p4p2-4~-----2h4p2p0---------|------------------------------|
C#|------------------------3h5p3p2-|-2h3p2p0--0h2p0---------------|
A |--------------------------------|---------------2--0h2-0h2-4~--|
E |--------------------------------|------------------------------|
B |--------------------------------|------------------------------|
E |--------------------------------|------------------------------|

e |-----------------|-----------------|---------------------|----------------------|
C#|-----------------|---------5b7-----|-(b7)--------5b7-5-3-|-5~---------2h3---2-2-|
A |-6-7-------------|-6-7-------------|---------------------|---------2h4----2-----|
E |---------7b9-----|-----------------|---------------------|----------------------|
B |-----------------|-----------------|---------------------|----------------------|
E |-----------------|-----------------|---------------------|----------------------|

e |----------------------------|
C#|-2-3p2p0--------------------|
A |----------------------------|
E |----------------------------|
B |----------------------------|
E |----------------------------|


Play Chorus to finish song and hold the last Chord:
e |-0--------------------|
C#|-0--------------------|
A |-2--------------------|
E |-2--------------------|
B |-0--------------------|
E |----------------------|


Quiet acoustic in background plays:
e |-0-----0-0------0-0---------|-0---0-0--0-0-0---0-0--0-0--|
C#|-2-----2-2h3----2-2h3p2p0---|-0---0-0--0-0-0---0-0--0-0--|
A |-0---0-0-0----0-0-0---------|-2-----2------0-----0-------|
E |-0---0-0-0----0-0-0---------|-0-----0------0-----0-------|
B |----------------------------|-0-----0------0-----0-------|
E |----------------------------|----------------------------|


Key:
| /  slide up
| \  slide down
| h  hammer-on
| p  pull-off
| ~  vibrato
| x  Mute note (or rake)
| b  bend (bends with vibrato bar indicated)
| r  release bend

            
            
Suggest correction
Creating personal tab
Creating personal tab
You can edit any tab online and save it as your Personal.

You can edit, replace or remove any tab part or add personal notes – all changes will be seen only by you.

Personal tabs can be accessed anytime from any device, even offline.
Learn more »
Give kudos to tab author, rate the tab!
1 2 3 4 5
comments
print report bad tab
guest
You may want to rate the tab now too:
select rating
Wanna post a correction for this tab? Suggest correction