Oops, an error
Loading. Please wait.

Lemon Parade album tab

version 1
version 1

Album

Whole song

  • Full version including a capo rhythm guitar part and Standard tuned electric.

Interactive

by Tonic
1,257 views 9 this week
no commentswrite comment
1 2 3 4 5
2 more votes to show rating
add to favorites
×
Save as Personal and add changes to this tab that will be seen only by you. Learn more ›
×
You can save this tab as Personal to edit and correct it or add notes. All changes will be seen only by you. Learn more »
launch autoscroll
font size
0
reset
how to read this tab
guitar tuner
edit
Autoscroll
slow
fast
+/-
esc
set tempo
stop
Author
Difficulty
Lemon Parade Album by Tonic
------------------------------------------------
As tabbed out by jjhand, Crushed Skullz & Matt Wilson.

Tracklisting:
-----------------
1.Open Up Your Eyes
2.Casual Affair
3.If You Could Only See
4.Soldier's Daughter
5.Lemon Parade
6.Mountain
7.Thick
8.Wicked Soldier
9.Mr.Golden Deal
10.Bigot Sunshine
11.Celtic Aggression
12.My Old Man
-------------------------------------------------

Tonic - Open up Your Eyes
From "Lemon Parade"
Tuning - Drop-D (three guitars, including overdubs)
tabbed by jjhand

Please rate my tab and others will check it out too.

Intro - Guitar 1 (notes come in with a volume swell & feedback)
e|-------------|------------|------------|------------------|
B|-------------|------------|------------|------------------|
G|-2-----------|-(2)--------|-(2)--------|-(2)-------(2)p0--|
D|-------------|------------|------------|------------------|
A|-------------|------------|------------|------------------|
D|-0-----------|-(0)--------|-(0)--------|-(0)--------------|

Main Riff - Guitar 1
 play 3 1/2 times (after 3rd time, play first bar only)
e|-------------------------|------2---2-3--3---|
B|-------------------------|------3---3-3--3---|
G|-------0--------0--------|------2---2-2--2---|
D|----2--------0-----------|------0---0-0--0---|
A|-3--------2--------------|-------------------|
D|-------------------3b4-0-|-(0)---------------|

On 4th bar, 
Guitar 2 plays with 'talk box' effect:
e|----------------|----------------|----2---2-3-3--|
B|----2---2-3-3---|----------------|---------------|
G|----------------|----------------|---------------|
D|----------------|----------------|---------------|
A|----------------|----------------|---------------|
D|----------------|----------------|---------------|

Verse- 2 Guitars, PM bottom 2 strings
e|-----------------|-----------------|-----------------|
B|-----------------|-----------5-5---|-5h7-7-----------|
G|-----------------|-----------7-7-7-|-7---7-----------|
D|-----------------|-----------7-7-7-|-7---7-----------|
A|-0-0-0-0-0-0-0-0-|-0-0-0-0-0-0-0-0-|-0-0-0-0-0-0-0-0-|
D|-0-0-0-0-0-0-0-0-|-0-0-0-0-0-0-0-0-|-0-0-0-0-0-0-0-0-|

e|-----------------|-----------------|-----------------| 
B|-----------8-8p7-|-8---7-----------|-----------8-8-8-| 
G|-----------7-7---|-7---7-----------|-----------7-7-7-| 
D|-----------7-7---|-7---7-----------|-----------7-7-7-| 
A|-0-0-0-0-0-0-0-0-|-0-0-0-0-0-0-0-0-|-0-0-0-0-0-0-0-0-| 
D|-0-0-0-0-0-0-0-0-|-0-0-0-0-0-0-0-0-|-0-0-0-0-0-0-0-0-| 

e|-----------------|-----------------|-----------------|
B|-8---8-8---------|-----------5-5---|-5h7-7-----------|
G|-7---7-7---------|-----------7-7-7-|-7---7-----------|
D|-7---7-7---------|-----------7-7-7-|-7---7-----------|
A|-0-0-0-0-0-0-0-0-|-0-0-0-0-0-0-0-0-|-0-0-0-0-0-0-0-0-|
D|-0-0-0-0-0-0-0-0-|-0-0-0-0-0-0-0-0-|-0-0-0-0-0-0-0-0-|

e|-----------------|-----------------|---2-2-2-2-2-2-2h3-| 
B|-----------5-5---|-5-7-------------|---3-3-3-3-3-3-3---| 
G|-----------7-7-7-|-7-7-------------|---2-2-2-2-2-2-2---| 
D|-----------7-7-7-|-7-7-----------0-|-0-0-0-0-0-0-0-0---| 
A|-0-0-0-0-0-0-0-0-|-0-0-0-0-0-0-2---|---0-0-0-0-0-0-0---| 
D|-0-0-0-0-0-0-0-0-|-0-0-0-0-0-------|-------------------|

Chorus - Guitar 1- Play Main Riff &

Guitar 2 plays (w/ talk box):
e|-------------|------------|------------|----------------|
B|-------------|------------|------------|----------------|
G|-5----4--5p4-|-2----------|------------|----------------|
D|-------------|------------|-5----5-----|-4--------------|
A|-------------|------------|------------|----------------|
D|-------------|------------|------------|----------------|

e|-------------|------------|------------|
B|-------------|------------|------------|
G|-5----4--5p4-|-2----------|------------|
D|-------------|------------|-5----5-----|
A|-------------|------------|------------|
D|-------------|------------|------------|


After chorus Gtr 1 plays this 2x:               2nd time through, Guitar 2 plays:
                                                     w/ creschendo 
e|-3------2------2---|-0------2------2----|     |----------|----------|----------|
B|---3------3------3-|---3------3------3--|     |-10~~~~~~~|-(10~~)---|-(10)\----|
G|-----2------2------|-----2------2-------|     |----------|----------|----------|
D|-------------------|--------------------|     |----------|----------|----------|
A|-------------------|--------------------|     |----------|----------|----------|
D|-------------------|--------------------|     |----------|----------|----------|

Verse 2 is similar to before, but the order of each strumming
lick is a little different.

Play Chorus as before, but a third repeated part plays on top:
E|-13-15-17-----------|
B|----------15\13-----|
G|--------------------|
D|--------------------|
A|--------------------|
E|--------------------|

After 2nd chorus, Guitars play:
play 3x                          Ending
e|----------0-----0-|          |-0-------------------|
B|------------------|          |-0-------------------|
G|--------8---0-8---|          |-x-------------------|
D|--9---------------|          |-9-----------x-x-x-x-|
A|--9---------------|          |-9-----------x-x-x-x-|
D|--9---------------|          |-9-----------x-x-x-x-|

Double Tracked Solo- 
   Guitar 2 - main solo
e|------------------------|---------------------|--------------------------|
B|-10------10--10_________|_____10--------------|--------------------------|
G|-12b14_______14r13b14___|____b14r12p10--12b14-|-10~-----12-----12b13-10~-|
D|------------------------|---------------------|--------------------------|
A|------------------------|---------------------|--------------------------|
D|------------------------|---------------------|--------------------------|
 | 
 | Guitar 3 (2nd track, use whammy bar where "v" is shown to bend or vibrato)
e|------------------------|---------------------|--------------------------|
B|------------------------|-----13-13-----------|--------------------------|
G|-12b14____14_14_14_14r13|_b14------------12b13|-12b13-12~-10-12p10-10-10v|
D|------------------------|---------------------|--------------------------|
A|------------------------|---------------------|--------------------------|
D|------------------------|---------------------|--------------------------|

  Guitar 2
e|---------------------|------------------------|------------------------|
B|---------------------|------------------------|------------------------|
G|-(10~)---------------|------------------------|------------------------|
D|--------12-10h12-12~-|------------------------|------------------------|
A|---------------------|-10b11----10~-----10b11-|-10~--------8--10--8~---|
D|---------------------|------------------------|------------------------|
 |
 |      
e|---------------------|------------------------|------------------------|
B|-8-------------------|------------------------|------------------------|
G|---7~--5-5-5-6-6-7~--|------------------------|------------------------|
D|-------0-0-0-0-0-0---|-5b6--0-0-0-0-0-0-0-0-0-|-5b6--0-0-0-0-0-0-0-0-0-|
A|---------------------|------------------------|------------------------|
D|---------------------|------------------------|------------------------|


  Guitar 2
e|------------------------------------|------------------10------------10-----10-|
B|------------------------------------|-10-------------10---13p10-13b15--13b15---|
G|------------------------------------|-10--12-10-12b14--------------------------|
D|---------------------------10-11-12-|------------------------------------------|
A|-------------------10-11-12---------|------------------------------------------|
D|-10h12-10h12p10h12------------------|------------------------------------------|
 |
 |
e|------------------------------------|------------------------------------------|
B|-8----------------------------------|--------13-----13-------------------------|
G|-7--------5--5----7--7--------------|-12b14-----b14----12--10--12V13v12V13V12--|
D|----------0--0----0--0--------------|------------------------------------------|
A|------------------------------------|------------------------------------------|
D|------------------------------------|------------------------------------------|


   
e|---------10---------|----------------------|--------------|------------|
B|-13b15-----13b15r13-|-10~--10--------------|--------------|------------|
G|--------------------|--------------12b14r12|-10~~~--------|-(10)-------|
D|--------------------|----------------------|--------------|------------|
A|--------------------|----------------------|--------------|------------|
D|--------------------|----------------------|--------------|------------|
 |
 |
e|-------10-----------|----------------------|--------------|------------|
B|-13b15---13b15-13V15|-v15~--15r13p10--10v8_|_r10----------|-(10)-------|
G|--------------------|----------------------|--------------|------------|
D|--------------------|----------------------|--------------|------------|
A|--------------------|----------------------|--------------|------------|
D|--------------------|----------------------|--------------|------------|


During solo, Rhythm Guitar 1 plays (8x):
E|----------------2--2--2-2--|
B|----------------3--3--3-3--|
G|----------------2--2--2-2--|
D|---------0------0--0--0-0--|
A|---------0-----------------|
D|-3b4--0-----0--------------|

End Solo Rhythm:                          soft <  loud  < louder
E|--------------|--------------|-----------------|-----------------|
B|--------------|--------------|-----------3-3-3-|-3-3-3-3-3-3-3-3-|
G|-----0--------|--------------|-----------2-2-2-|-2-2-2-2-2-2-2-2-|
D|---3----------|--------------|-----------0-0-0-|-0-0-0-0-0-0-0-0-|
A|-1--------1-0-|--------------|-----------0-0-0-|-0-0-0-0-0-0-0-0-|
D|--------------|-5-------3-2~-|-0-0-0-0-0-0-0-0-|-0-0-0-0-0-0-0-0-|
                              PM # # # # #


Play Main Riff 7 1/2 times (15 bars total), then play ending.


Ending:

Gtr 1 (play 4x)                    Gtr 2 (repeat 2nd bar until last chord)
                                    use talk box
E|--------------2--2---2-2--|     |-------------------||---------------------||
B|--------------3--3---3-3--|     |-------------------||---------------------||
G|--------------2--2---2-2--|     |-7---7---7--7--7-7-||-10~--7---7--7--7-7--||
D|----------0---0--0---0-0--|     |-0---0---0--0--0-0-||--0---0---0--0--0-0--||
A|----------0---0--0---0-0--|     |-------------------||---------------------||
D|-3b4--0---0---0--0---0-0--|     |-------------------||---------------------||

Both guitars end on Csus/F chord and fade out
E|--0---------------|
B|--1---------------|
G|--0---------------|
D|--3---------------|
A|--3---------------|
D|--3---------------|

---------------------------------------------------------------------

Tonic - 'Casual Affair' 
Album: Lemon Parade
Tuning: Electric 1 & Acoustic is tuned to DADGAE, capo 4th fret
Solo (Electric 2) is tuned standard
tabbed by jjhand

I changed this 12/5/09 to reflect a youtube video of Elerson and Jeff at
Murfeesboro, TN. Enjoy and please rate my tabs so others will check them out too!


Intro - Electric 1 w/ light distortion (tuning is with capo)
G#|-------------------------------------|--------------------------------|
C#|-------------------------------------|--------------------------------|
B |-7-7-7--7-7-7--7-7-7--7-7-7--7-7-7-7-|-7-7-7--7-7-7--7-7-7--7-7-7--7--|
F#|-0-0-0--0-0-0--0-0-0--0-0-0--0-0-0-0-|-0-0-0--0-0-0--0-0-0--0-0-0--0--|
C#|-------------------------------------|--------------------------------|
F#|-------------------------------------|--------------------------------|


Main Riff - Electric 1 (Electric 2 strums F#5 chords)
|-------------------------------------|---------------------------------|
|-------------------------------------|---------------------------------|
|-------------------------------------|----------------------2--2h3p2---|
|-------------------------------------|----------------------2--2h3p2---|
|-3-0-0--3-0-0--3-0-0--3-0-0--3-0-0---|-3-0-0--3-0-0--3-0-0-------------|





Verse Riff - Acoustic part 
  play 2x                        then strum these chords similarly
G#|-0--0-0-0--0--0-0-0--0--0-0--|       |-0------------|-0-------------|
C#|-0--0-0-0--0--0-0-0--0--0-0--|       |-0------------|-0-------------|
B |-7--7-7-7--7--7-7-7--7--7-7--|       |-3------------|-5-------------|
F#|-----------------------------|       |--------------|---------------|
C#|-----------------------------|       |--------------|---------------|
F#|-----------------------------|       |--------------|---------------|



Verse Riff - Electric 1 part
|---------------|--------------|---------------|------------------|
|---7-----------|-------7------|----------0----|---------0---0----|
|-7---7-5--7--7-|-7---7----7---|------3------3-|------5----5---5--|
|---------------|--------------|----3----------|----5-------------|
|-------------8-|-8----------8\|-1-------------|-3----------------|
|---------------|--------------|---------------|------------------|

play 3x:
|---------------|--------------|---------------|------------------|
|---------------|-------7------|----------0----|---------0---0----|
|-7-5---7/9-----|-----7----7---|------3------3-|------5----5---5--|
|-----7---------|---7--------7\|----3----------|----5-------------|
|---------------|-8------------|-1-------------|-3----------------|
|---------------|--------------|---------------|------------------|


Prechorus bar - Electric Gtr. 2 (on last bar of final verse repeat)
e|--------------------------|
B|-0-0-0-0----0-0-0-0----0--|
G|-5-5-5-5----5-5-5-5----5--|
D|-5-5-5-5----5-5-5-5----5--|
A|-3-3-3-3----3-3-3-3----3--|
E|--------------------------|


Chorus - play 2x
  Electric 1 (Electric 2 overlaps as well)
   D                A        A  A#  B                 F#
|----------------|---------------|-----------------|-------------|
|----------------|---------------|-----------------|-------------|
|-/7----------7\-|-2--------2--3-|-/4------------\-|-2-----------|
|-/8----------8\-|-3--------3--4-|-/5------------\-|-0-----------|
|-/8----------8\-|-3--------3--4-|-/5------------\-|-0-----------|
|----------------|---------------|-----------------|-------------|
|
|Acoustic (chords/rhythm are approximate)
|----0--0-0----0-|----0--0-0---0-|----0--0-0---0---|---0--0-0---0--|
|----0--0-0----0-|----0--0-0---0-|----0--0-0---0---|---0--0-0---0--|
|-7----------7---|-2-------------|-4---------4-----|-2--------2----|
|----------------|-3-------------|-5---------5-----|-0--------0----|
|----------------|---------------|-----------------|---------------|
|----------------|---------------|-----------------|---------------|


Play Verse, Prechorus, and Chorus again


Solo - (Standard-Tuned Lead/Electric 2, other electric plays Main Riff)
e|------------|-------------|----------------------|----------------------|
B|------------|------2-2-2--|--2---2---------------|----------------------|
G|-4b6________|(4b6)________|-b6r4-6r4--2---2~-----|----------------------|
D|------------|-------------|-------------4----4p2-|-4p2------------------|
A|------------|-------------|----------------------|-----4p2-0h2----------|
E|------------|-------------|----------------------|-------------4b5-2~~--|

e|-------------------|---------------------|---------------------------|
B|----------------10-|-10b11------------10-|-10b12r10------------------|
G|-11~-11~-11~-11~---|-------11~-11~-11~---|----------11~-11~-11~--11\-|
D|-------------------|---------------------|---------------------------|
A|-------------------|---------------------|---------------------------|
E|-------------------|---------------------|---------------------------|

e|--------------------------|
B|--------------------------|
G|---2---2b4-2b4r2----------|
D|-4---4-----------4-2-4----|
A|--------------------------|
E|--------------------------|

Play Chorus again 2x but alter final bar of Electric part to:

G#|-----------------------------|
C#|-----------------------------|
B |-/11----11-11-11-11-11-11-11-|
F#|-/12----12-12-12-12-12-12-12-|
C#|-/12----12-12-12-12-12-12-12-|
F#|-----------------------------|

Play Main Riff to end song
----------------------------------------------------------------------

***Capo 1st Fret on all guitars (Capo is shown as being the nut)
---------------------------------------------------------------------------
Am	C	G5    G5/F    Asus2  Cmaj7/E	G6   Fmaj7#11?	Em
0	0	3	3	0	0	0	0	0
1	1	3	3	0	0	0	0	0
2	0	0	0	2	5	4	2	0
2	2	0	0	2	5	5	3	2
0	3	x	x	0	3	5	3	2
x	3	3	1	x	0	3	1	0

---------------------------------------------------------------------------

The beginning is with only an acoustic.  The stumming varies, so I'll just
show the chords.You'll have to listen to the song to get the excact rhythm.
 (Gtr. 1)
|Am    |C      |G5	|G5/F	G5   |Am      |C      |G5     |G5/F  G5|

|Am    |C      |G5      |G5/F (hold) |        |


---------------------------------------------------------------------------
Here is where the two distorted electric guitars come in:
(The strings are shown in relation to the capo.)
   (Gtr. 2)
F ||-------------------|----------------------------|| Play 2x
C ||-------------------|----------------------------||
G#||.--------------9\7-|-(7)-5/14----------14\-----.||
D#||.---9/10\9---------|---------------------------.||
A#||-------------------|----------------------------||
F ||-------------------|----------------------------||  
  |                                                  |
  |(Gtr. 3)                                          |
F |-0-0--------0-0-x-x-|-0-0-x-x-0---0-0-0-0-0-0-0--||
C |-0-0--------0-0-x-x-|-0-0-x-x-0---0-0-0-0-0-0-0--||
G#|-2-2--------5-5-x-x-|-4-4-x-x-2---2-2-2-2-2-2-2-.||
D#|-2-2--------5-5-x-x-|-5-5-x-x-3---3-3-3-3-3-3-3-.||
A#|-0-0--------3-3-x-x-|-5-5-x-x-3---3-3-3-3-3-3-3--||
F |------------0-0-x-x-|-3-3-x-x-1---1-1-1-1-1-1-1--||

---------------------------------------------------------------------------
Here is the verse:
   Play entire thing 2x
   Gtr.s 2&3 (One uses slides & the other doesn't)   
F ||------------------------------|------------------------------|
C ||------------------------------|------------------------------|
G#||.-----------------------------|------------------------------| 
D#||.-----------------------------|------------------------------|
A#||-5/7-7-7-7--x-x-x-5/7-7--7--7-|-5/7-7-7-7--x-x-x-5/7-7--7--7-|
F ||-3/5-5-5-5--x-x-x-3/5-5--5--5-|-3/5-5-5-5--x-x-x-3/5-5--5--5-|

   Gtr. 2
F |------------------------------|--------------------------------||
C |------------------------------|-3------------3-3-------3-3-3-3-||
G#|------------------------------|-0------------0-0-------0-0-0-0.||
D#|------------------------------|-4------------4-4-------4-4-4-4.||
A#|-2/3-3-3-3--x-x-x-2/3-3--3--3-|-5------------5-5-------5-5-5-5-||
F |-0/1-1-1-1--x-x-x-0/1-1--1--1-|--------------------------------||
  |                                                               |
  | Gtr. 3                                                        |
F |-0-0-0-0-0--x-x-x-0---0--0--0-|--------------3-------0---------||
C |-0-0-0-0-0--x-x-x-0---0--0--0-|-3--3-3-3-3-3-3---3-3-3---3-3-3-||
G#|-2-2-2-2-2--x-x-x-3---3--3--3-|-0--0-0-0-0-0-0---0-0-0---0-0-0.||
D#|-3-3-3-3-3--x-x-x-3---3--3--3-|-4--4-4-4-4-4-----4-4-----4-4-4.||
A#|-3-3-3-3-3--x-x-x-3---3--3--3-|-5--5-5-5-5-5-----5-5-----5-5-5-||
F |-1-1-1-1-1--x-x-x-1---1--1--1-|--------------------------------||

---------------------------------------------------------------------------
Pre-Chorus:
   Gtr. 2
     1        1        1         1        1        1
F |-------0--------0-------|-0--------0--------0----|
C |-3--3-----3--3-----3--3-|----3--3-----3--3-----3-|
G#|-5^-------5^-------5^---|----5^-------5^-------5^|
D#|------------------------|------------------------|
A#|------------------------|------------------------|
F |------------------------|------------------------|
  |                                                 |
  |  Gtr. 3                                         |
F |-0-----0-----0--0--0--0-|-0-----0-----0--0--0--0-|
C |-0-----0-----0--0--0--0-|-0-----0-----0--0--0--0-|
G#|-2-----2-----2--2--2--2-|-5-----5-----5--5--5--5-|
D#|-2-----2-----2--2--2--2-|-5-----5-----5--5--5--5-|
A#|-0-----0-----0--0--0--0-|-3-----3-----3--3--3--3-|
F |------------------------|------------------------|

           1        1         1
F |----0--------0--------0-|------------------------|
C |-3-----3--3-----3--3----|-3----------------------|
G#|-------5^-------5^------|-5^---------------------|
D#|------------------------|------------------------|
A#|------------------------|------------------------|
F |------------------------|------------------------|
  |                                                 |
  |                                                 |
F |-0---0-0-----0--0--0--0-|------------------------|
C |-0---0-0-----0--0--0--0-|------------------------|
G#|-4---4-4-----4--4--4--4-|------------------------|
D#|-5---5-5-----5--5--5--5-|-5----------------------|
A#|-5---5-5-----5--5--5--5-|-5----------------------|
F |-3---3-3-----3--3--3--3-|-3----------------------|


---------------------------------------------------------------------------
Chorus
There are 3 guitar parts here: Gtr. 1 (acoustic), Gtr. 4 (clean w/echo),
and Gtr. 5 (clean). 
Guitar 1 plays the rhythm from the beginning of the song while the others
play this:

   Gtr. 4
F |-----------------0---------|-(0)------3----3-----------|
C |-----------0---0-----------|-------3----3h5--3---------|
G#|--------5------------------|-------------------------5-|
D#|-7----7--------------------|---------------------------|
A#|---------------------------|---------------------------|
F |---------------------------|---------------------------|
  |                                                       |
  | Gtr. 5                                                |
F |--------0--0---0-0---------|---------------------------|
C |------0h1--0---0-0h1-------|-----1--------1-----1-1--1-|
G#|---------------------2-2-0-|-0---0-0--0---0-0---0-0--2-|
D#|---------------------2-2-0-|-0h2---2--0-----0h2--------|
A#|-0-------------------0-0-0-|-3-----3--3-----3----------|
F |---------------------------|---------------------------|

   Gtr. 4
F |----------3----3---3-----|-------------------------|
C |-------3----3----3---3---|-------0----0---0---0----|
G#|-4-----------------------|----5-----5-------5------|
D#|-------------------------|-3---------------------5-|
A#|-------------------------|-------------------------|
F |-------------------------|-------------------------|
  |                                                   |
  | Gtr. 5                                            |
F |-----3-3--3----3-3---3-3-|-----3-3--3-3-3-3---3--0-|
C |-----3-3--3----3-3---3-3-|-----3-3--3-3-3-3---3--0-|
G#|-0---0-0--2----2-2---0-0-|-----0-0--0-0-0-0---0--0-|
D#|-0--------0----0-0---0-0-|-----0-0--0-0-0-0---0--0-|
A#|-------------------------|-------------------------|
F |-3-----------------------|-1----------------3------|


---------------------------------------------------------------------------
This is played by yet another guitar, Guitar 6 (clean) It is played
during the second verse.
F |----------------------------|-------------------------|--------------|
C |----------------------------|-------------------------|--------------|
G#|----------------------------|---------------------12////14-----------|
D#|-12/14--12/14-----------17\\\\14----------------------|--------------|
A#|----------------------------|-------------------------|--------------|
F |----------------------------|-------------------------|--------------|

F |----------------------|----------------------|------------------------|
C |----------------------|----------------------|------------------------|
G#|----------------------|----------------------|-------------------12////
D#|----------------------|-14-------------17\\\\\\14---------------------|
A#|---------------10//14-|----------------------|------------------------|
F |----------------------|----------------------|------------------------|
F |------------------------|-------------------------|
C |------------------------|-------------------------|
G#|/14---------------------|-----------------14\\\\\\|
D#|------------------------|-----------------14\\\\\\|
A#|------------------------|-------------------------|
F |------------------------|-------------------------|

---------------------------------------------------------------------------

This is the rhythm played behind the solo, it is played by Gtrs. 1 and 3.
The solo is played by Guitar 7 (distortion).

    Gtrs. 1&3                                                 play 4x
F ||-0--0--x--0-----0--0--0-0-|-3---3-3-3-3-0----0--0-0--0-0--||
C ||-0--0--x--0-----0--0--0-0-|-3---3-3-3-3-0h1--1--1-1--0-0--||
G#||.1--1--x--1-----1--1--0-0-|-0---0-0-0-0-0h2--2--2-2--0-0-.||
D#||.2--2--x--2-----2--2--0-0-|-0---0-0-0-0-0h2--2--2-2--0-0-.||
A#||-2--2--x--2-----2--2--0-0-|-0-----------0----0--0-0--0-0--||
F ||-0--0--x--0-----0--0--0-0-|-0h3-3-3-3-3-------------------||
-------------------------------------------------------------------------

Tonic - Soldiers Daughter
From "Lemon Parade" Album
tuning: Acoustics/Electric Guitar in DADF#AE but capo 4th fret
tabbed by jjhand

This is the way that Emerson and Jeff play it in Tonic. Tune down 2nd and 6th strings
a full step and the 3rd string a half step to get open Dadd9 tuning.

This was as close as I could get, so have fun and rate or comment please.

Intro - Two Acoustics

play 2x
|------0--0--0----0--0-|----0---0-0--0-0--0000-0-0--0-0--000-0-0-----|
|-/4_______--4\2--0----|--------0---------------------0------0-0-4-2-|
|-----------------3----|---------------0-------0---------------------|
|----------------------|---------------------------------------------|
|----------------------|---------------------------------------------|
|----------------------|-0----0--------------------------------------|

Third time:

Acoustic 1 - Emerson Hart                     (add strums on end of line)
|------0--0--0----0--0-|----0-0--0-0--0000-0-0h2-5-2-3-2h3p2p0-0-0--0--0-|
|-/4_______--4h5--4----|----0------0--------------------------------0----|
|------------3----3----|-----------------------------------------0-----0-|
|----------------------|-------------------------------------------------|
|----------------------|-------------------------------------------------|
|----------------------|-------------------------------------------------|
|
| Acoustic 2 - Jeff Russo
|------0--0-------0--0-|------------------------|
|-/4_______--0----0----|-0----------------------|
|------------0----0----|-0----------------------| this part ends
|----------------------|-0----------------------| but an electric
|----------------------|------------------------| comes in
|----------------------|------------------------|

Verse - play similarly 3x

 Acoustic 1 - v is upstroke arpeggio
|-------0000---00-------|-----000------v0--|--------------------|------0-00-----0-|
|-----0------0----0h2---|---0-----0-0---0--|----0--0----0--0--0-|-0--0-0----0-0-0-|
|-----3-----------------|-0-0-----0-0---0--|----0--0--2/3--3--2-|-0--0------0-0---|
|-2----------2--------2-|------------------|-0------------------|-----------------|
|-----------------------|------------------|--------------------|-----------------|
|-----------------------|------------------|--------------------|-----------------|
|
| Clean Electric - listen for timing
|-------------0---------|------------0--0--|--------------------|---------------|
|-----2----0------------|-------2--0----0--|------------0--0--0-|-0---------0---|
|-----------------------|---------------3--|----------2/3--3--2-|-0---------0---|
|---2-------------------|-----2------------|--------------------|-------------0-|
|-0---------------------|---0--------------|--------------------|---------------|
|-----------------------|---------------0--|--------------------|---------------|

At 1:05, play this:

Acoustic
|----0------000-0-0--0-00-|--0--0--000-0-0-00-0-0-0--0-0-|-(0)--------------|
|-2-----2---222-2-2--2-22-|--2--2--222-2-2-22-2-2-2--2-2-|-(2)--------------|
|-3-----3-------3-3--3----|--3--3------3-3------3-3----3-|-(3)--------------|
|-2-----------------------|------------------------------|------------------|
|-4-----------------------|------------------------------|------------------|
|-------------------------|------------------------------|--2---------------|
|
|-------------------------|------------------------------|------------------|
|-----------2-------------|----------2-------------------|------------------|
|-------------------------|------------------------------|------------------|
|-2------2----------------|-------2----------------------|------------------|
|-4---4-------------------|----4-------------------------|------------------|
|-------------------------|------------------------------|------------------|


New Verse (1:17) - Play Acoustic verse riff, but a Distorted Electric plays:

play 4x with slight rhythm changes
|--------------------|--------------------|--------------------|------------------|
|-2----2--2-2--0-----|-------2--2-2--0----|------0---0----0--0-|----------------0-|
|-3----3--3-3--3-----|-------3--3-3--3----|------3---2/3--2--0-|-----0--------0-0-|
|-2----2--2-2--2---2-|-------2--2-2--2----|------2---2----2--0-|-----0------2-4---|
|-0----------------0-|--------------------|--------------------|-----0--2/4-------|
|--------------------|--------------------|-0------------------|---0--------------|


Prechorus (2:03) - Distorted Electric              Acoustic Part
           * * slight pm
|--------------------|                |-0-0-0----0--0-0-0----0-|
|-2----2---2-2----2--|                |-2-2-2----2--2-2-2----2-|
|-2----2---2-2----2--|                |-2-2-2--2----2-2-2--2---| play both
|-2----2---2-2----2--|                |-2-2-2--2----2-2-2--2---|  parts 4x
|-4----4---4-4--4----|                |------------------------|
|--------------------|                |------------------------|


Chorus - Distorted Electric (Acoustic just adds extra strums on high open strings)
  F#                   G#sus4               A#sus4              G#
|--------------------|--------------------|-------------------|-------------------|
|-----0----0-0---0---|-------0---0-0------|-------------------|-------------------|
|-3---3----3-3---3---|-3-----3---3-3------|-5----5----5----5--|-5----5---5p3h5-5--|
|-0------------------|-2-------------2----|-4----4----4----4--|-2----2---2-----2--|
|-0------------------|-2---2---------2----|-4----4----4----4--|-2----2---2-----2--|
|-0------------------|-2---2---------2----|-4----4----4----4--|-2----2---2-----2--|

  F#                   G#sus4               C#add2
|--------------------|--------------------|-------------------|-------------------|
|-----0----0-0---0---|-------0---0-0------|-------------------|-------------------|
|-3---3----3-3---3---|-3-----3---3-3------|-5----5----5----5--|-5----5---5----5---|
|-0------------------|-2-------------2----|-7----7----7----7--|-7----7---7----7---|
|-0------------------|-2---2---------2----|-7----7----7----7--|-7----7---7----7---|
|-0------------------|-2---2---------2----|-7----7----7----7--|-7----7---7----7---|


Distorted Guitar Solo (2:36) - Acoustic plays Chorus chords during solo
|-----0------0--0-0--|-0--0--0---0--2--0--|---------------------|
|-0------0------0-0--|-0--0--0---0--0--0--|-0-0--0--0--0-0-0----|
|-2/3----2/3----3-3--|-3--3--3---3--3--3--|-7-8-10-10-10-8-7tr8-|
|--------------------|--------------------|---------------------|
|--------------------|--------------------|---------------------|
|--------------------|--------------------|---------------------|

|----0-0-0-----------|-----0-----0---0----|-----0------0----0-----|
|-0--0-0-0----0-0-0--|---0-----0---0---0--|---0------0----0---0---|
|-5---------4/5-2-0--|-0h2---2/3---3---7--|-7h8---8/10---10---10--|
|--------------------|--------------------|-----------------------|
|--------------------|--------------------|-----------------------|
|--------------------|--------------------|-----------------------|

|-0---0----0-----0---|-0--0-0--0---0-------------|
|-0---0----0-----0---|-0----0----0-0----0-0-0-0--|
|-8---10---8\7/8-8---|-8----8----8-8\7--8-8-8-8--|
|--------------------|---------------------------|
|--------------------|---------------------------|
|--------------------|---------------------------|


Bridge - Electric and Acoustic combined, Acoustic plays top strings

|-------------------------|-------------------------|-----0--0-----------|
|-3---3-3----3-3----3-3---|-3---3-3----3-3----3-3---|-0---0--0-0-0--0--0-|
|-3---3-3----3-3----3-3---|-3---3-3----3-3----3-3---|-3---3--3-3-3--3--3-|
|-3---3-3----3-3----3-3---|-3---3-3----3-3----3-3---|-2---2--2-2-2--2--2-|
|-3---3-3----3-3----3-3---|-3---3-3----3-3----3-3---|-0---0--0-0-0--0--0-|
|-3---3-3----3-3----3-3---|-3---3-3----3-3----3-3---|--------------------|

|-----0--0------0----|-------------------------|-------------------------|
|-0---0--0-0-0--0--0-|-3---3-3----3-3----3-3---|-3-3-3--3-3--3-3-3--3-3--|
|-3---3--3-3-3--3--3-|-3---3-3----3-3----3-3---|-3-3-3--3-3--3-3-3--3-3--|
|-2---2--2-2-2--2--2-|-3---3-3----3-3----3-3---|-3-3-3--3-3--3-3-3--3-3--|
|-0---0--0-0-0--0--0-|-3---3-3----3-3----3-3---|-3-3-3--3-3--3-3-3--3-3--|
|--------------------|-3---3-3----3-3----3-3---|-3-3-3--3-3--3-3-3--3-3--|


(3:15)
bottom = Electric, top = Acoustic
|------0--0----000----000-|-----0--0----000----000--|----------000----0-0--|
|-2----2--2-2--222-2--222-|-2---2--2-2--222-2--222--|-------2--222-2--2-2--|
|-2---------2------2------|-2--------2------2-------|-------2--222-2--2-2--|
|-------------------------|-------------------------|-------2--------------|
|-2-----------------------|-------------------------|-2-2/4----------------|
|-2-----------------------|-------------------------|----------------------|

|----0-0-------0--0-00-|----0-0----0-00-|------0--------00-|
|-2--2-2-2--2--2--2-22-|----2-2-2--2-22-|-2-2--2-2--2-2-22-|
|-2------2--2--2--2----|--------2-------|-2-2----2--2-2----|
|-2------2-------------|--------2-------|-2-2----2--2-2----|guessing at
|-----------2--4--4----|----------------|------------------|the rhythm
|----------------------|-2--------------|------------------|here


Last Bar above, Electric Guitar comes in
|-------------------------|
|-0--0-0--0--0-----0--0---|
|-7--8-10-8--7h8p7-3--3---|
|---------------------4---|
|-------------------------|
|-------------------------|


Play Chorus again

End Chorus - Acoustic and Electric (low E notes)
|--------------------|--------------------|---------0---00----|--------0---00-----|
|-----0----0-0---0---|-0---0--0--0-0-0----|-0----0--0-0-00-0--|-0--0-0-0-0-00-0---|
|-3---3----3-3---3---|-2---3--3--5-3-2----|-5----5----5----5--|-5----5---5----5---|
|-0------------------|-2-------------2----|-5----5----5----5--|-5----5---5----5---|
|-0------------------|-2---2---------2----|-5----5----5----5--|-5----5---5----5---|
|-0------------------|-2---2---------2----|-5-------------5\--|-0-----------------|

 Acoustic
|---------------------|---------------------|------|
|-0----0--0-0-00-0--0-|-0--0-0--0-0-00-0-0--|------|
|-5----5----5----5----|-5----5----5----5----|-5----|
|-5----5----5----5----|-5----5----5----5----|-5----|
|-5----5----5----5----|-5----5----5----5----|-5----|
|---------------------|---------------------|-5----|
|
|Electric
|---------------------|---------------------|------|
|-0-------------------|-(0)-----------------|-(0)--|
|-8-------------------|-(8)-----------------|------|
|---------------------|---------------------|------|
|---------------------|---------------------|------|
|---------------------|---------------------|-5----|

Play Intro (rhythm varies, but same riff overall)

Ending - both parts
|-0-----------------------|
|-0-----------------------|
|-5-----------------------|
|-2-----------------------|
|-0^----------------------|
|-------------------------|
  ^ play slow downward picking arpeggio, low to high
------------------------------------------------------------------

Tonic - Lemon Parade
From 'Lemon Parade' Album
tabbed by jjhand

Acoustic - Standard Tuning, but Capo 4th Fret 
Electric - Standard Tuning


Intro
   Electric                                          * hold slide then play next note delayed
e|-------------|-7--7-7----x-5---x---|-----4----4--4----------------|---7---7---x-5---x-|
B|----------4h5|-7--7-7----x-5---x---|-4h5-5----5--5----------------|---7---7---x-5---x-|
G|-------4-----|-8--8-8----x-6---x---|-4-----4--4--4------4---------|---8---8---x-6---x-|
D|-6--7--------|-9--9-9------7-------|-4h6---6------*6/7----6h7p6-4-|---9---9-----7-----|
A|-------------|-9--9-9------7-------|-7----------------------------|---9---9-----7-----|
E|-------------|-7--7-7------5-------|-0----------------------------|---7---7-----5-----|
 |
 | Acoustic (capo 4th fret)
 |-------------|-3----3--x-x-1---0-0-|-0----0-0-0---0---------------|-3-3---3---1-1---0-|
 |----------0h1|-3----3--x-x-1---1-1-|-1----1-1-1---1---------------|-3-3---3---1-1---0-|
 |-------0-----|-4----4--x-x-2-------|-0----0-0-0---0----0----------|---4---4-----2---0-|
 |-2--3--------|-5----5--x-x-3-------|-0h2--2-2-2---2-2/3---2h3p2-0-|---5---5-----3---0-|
 |-------------|---------------------|------------------------------|-------------------|
 |-------------|---------------------|------------------------------|-------------------|



Verse, including end of Intro Riff (Capo 4th fret on acoustic)
   Electric
|-4------------------------|--------------------|------------------------|
|-5------------------------|-----4-------4h5--5-|-4---4-------5-----5----|
|-4----------------------4-|-----4-------4----4-|-4---4-----4-----4------|
|-6------------------------|-----4-------4h6--6-|-4---4---7-----6-----4--|
|-7------------------------|--------------------|------------------------|
|-0------------------------|-7-----------7------|------------------------|
|
| Acoustic
|-0------------------------|-----3---3-3-3-----3-3-|-3----3--3-----------------|
|-1-----------1------1-----|-----0-------0h1---1-0-|-0----0--0-----0-----0-----|
|-0---------0------0-----0-|-----0-------0-----0-0-|-0----0--0---0-----0-----0-|
|-0h2-----2------3-----0---|-----0-------0h2---2-0-|-0----0--0-3-----2-----0---|
|--------------------------|-----------------------|---------------------------|
|--------------------------|-----------------------|---------------------------|


  Electric
 |--------------------------|---------------------------------|-----------7------| 
 |--------5----------5------|----------5----------5-----5-----|---------5--------|
 |------4---------4---------|-------4-----------4-----4-------|---4--------------|
 |-2----------6h7-------7p6-|-------6---------6-----7-----4---|---4--------------|
 |--------------------------|---------------------------------|------------------|
 |--------------------------|---------------------------------|------------------|
 |
 |
e|------3-3---1-1----1------|-0-------------0-----------------|---3---3------3---|
B|------1-1-------1-----1---|----1----------1-----1-----1---0-|---0---0h1----1p0-|
G|------0-0---------0-----0-|----0--0-----0-----0-----0-------|---0---0------0---|
D|------2-2-----------------|-------2--2--2---2-----3-----0---|---0---0h2----2p0-|
A|-3------------------------|---------------------------------|------------------|
E|--------------------------|---------------------------------|------------------|



|--------------------------|---------------------------|-----------------------------|
|------4---------5----5----|--------------5-----5------|-----------5-----5-----5-----|
|------4-------4----4------|-----4---------------------|---------4-----4-----4-------|
|------4-----7----6----4---|-----6----7------7-----7-6-|-------6-----6-----7-----4---|
|------6-------------------|-7---7---------------------|-7-----7---------------------|
|--------------------------|---------------------------|-----------------------------|
 |
 |
e|-3---3-------------------|-----3-3-------1----1----1-|-0---------------------------|
B|-0---0----0----0----0--1-|-1---1-1----1----1----1----|---1-------1-----1-----1---0-|
G|-0---0--0----0----0------|-0---0-0--0---0----0----0--|-----0---0-----0-----0-------|
D|-0---0-----3----2----0---|-2-------------------------|-------2-----2-----3-----0---|
A|-------------------------|-3-------------------------|-----------------------------|
E|-------------------------|---------------------------|-----------------------------|



 |-----------------7---|----------------4-----4------|--------------------------| 
 |---4-------4h5-------|-------4---------------------|----------------5---------|
 |---4---4---4-------4-|-------4---------------------|------4-------------4-----|
 |---4-------4h6-------|-------4-----7-----6-----4---|-4h6--------4h6-------6h7-|
 |---------------------|-----------------------------|--------------------------|
 |---------------------|-----------------------------|--------------------------|
 |
 |
e|---3---3-3-------3-3-|-3---3-3---------------------|------3-3---1-1-----1-----|
B|---0---0-0-0h1---1-0-|-0---0-0----0----0-----1---1-|-(1)--1-1-------1-----1---|
G|---0---0-0-0-----0-0-|-0---0-0--0----0-----0-------|------0-0---------0-----0-|
D|---0---0-0-0h2---2-0-|-0---0-0-----3-----2-----0---|------2-2-----------------|
A|---------------------|-----------------------------|--------------------------|
E|---------------------|-----------------------------|--------------------------|

   Electric
 |-------------------------------|------------------------|---------------------------|
 |------5---5---------5-----5----|-4---4--4----4h5-5-5p4--|-----4-----------5----5----|
 |------4-----------4-----4------|-4---4--4----4---4-4----|-----4---------4----4------|
 |-6--------------6-----7-----4--|-4---4--4----4h6-6-6p4--|-----4-------7----6-----4--|
 |-------------------------------|------------------------|---------------------------|
 |-------------------------------|------------------------|---------------------------|
 |
 |
e|-0------------------------0----|-----------------3-3----|----------------------3----|
B|---1--1-1------1----1-----1---0|-0---0--0-0--0h1-1-0----|-0---0-0----0----1-------1-|
G|--------0-0--0----0-----0------|-0---0--0-0--0---0-0----|-0---0-0--0----0----0------|
D|----------2-----2-----3-----0--|-0---0--0-0--0h2-2-0----|-0---0-0-----3----2----0---|
A|-------------------------------|------------------------|---------------------------|
E|-------------------------------|------------------------|---------------------------|

  Electric
 |-----------------------|---------------------|
 |------------5--5-------|-----------------4h5-|
 |----4------------------|--------------4------|
 |----6---6h7------7-7h6-|--------6--7---------| 
 |-7--7------------------|-7-------------------|
 |-----------------------|-0-------------------|
 |
 |
e|----3-3--1-1-----1-----|-0-------------------|
B|----1-1------1-----1---|-1---------------0h1-|
G|----0-0--------0-----0-|-0------------0------|
D|----2-2----------------|-2------2--3---------|
A|-----------------------|-3-------------------|
E|-----------------------|---------------------|




Chorus
    Acoustic (Capo 4th fret)
g#|------3--3-3-x-1--3---|------0---0----0-----------|-3---3-3---x-1--0--|
D#|-0----3--3-3-x-1--3---|-0h1--1---1----1-------0h1-|-0---0-0---x-1--0--|
B |-0----4--4-4-x-2--4---|-0------0-0----------0-----|-0---0-0---x-2--0--|
F#|-0----5--5-5---3--5---|-0h2----2-2------2-3-------|-0---0-0-----3--0--|
C#|------5--5-5------5---|---------------------------|-2---2-2-----3-----|
G#|------3--3-3------3---|---------------------------|-3---3-3-----1--3--|
  |
  | Electric
e||-2----2--2-x---0--0----|-4---4-4-4----4-----------|-2---2-2-----0--2--|
B||-4----4--4-x---2--4----|-5---5-5-5--5-5-------4h5-|-4---4-4-----2--4--|
G||-4----4--4-x---2--4----|-4---4-4-4--4-4-----4-----|-4---4-4-----2--4--|
D||-4----4--4-x---2--4----|-4h6-6-6-6--6-6-6-7-------|-4---4-4-----2--4--|
A||-2----2--2-x---0--2----|--------------------------|-2---2-2-----0--2--|
E||-----------------------|--------------------------|-------------------|


   Acoustic
||-0----0-0-0----0-----------|-3---3--x--1--3--|-----0----0--0---------------|
||-0h1--1-1-1------------0h1-|-3---3--x--1--3--|-0h1-1----1--1---------------|
||-0h2--2-2-2----------0-----|-4---4--x--2--4--|-0-----0--0-------0----------|
||-0h2--2-2-2------2-3-------|-5---5-----3--5--|-0h2---2--2----2h3---2h3p2-0-|
||-0----0-0-0----------------|-5---5-----3--5--|-----------------------------|
||---------------------------|-3---3-----1--3--|-----------------------------|
 |
 | 
e|-4----4-4-4----4-----------|-2---2-2---0--2--|-4---4-4-4--4----------------|
B|-5----5-5-5------------4h5-|-4---4-4---2--4--|-5---5-5-5-------------------|
G|-6----6-6-6--6-------4-----|-4---4-4---2--4--|-4---4-4-4--------4----------|
D|-6----6-6-6------6-7-------|-4---4-4---2--4--|-4h6-6-6-6-----6h7---6h7p6-4-|
A|-4----4-4-4----------------|-2---2-2---0--2--|-----------------------------|
E|---------------------------|-----------------|-----------------------------|


g#|-3---3-3---x-1--x-x-|-----------------|
D#|-3---3-3---x-1--x-x-|-1---------------|
B |-4---4-4---x-2--x-x-|-0---------------|
F#|-5---5-5-----3------|-2---------------|
C#|-5---5-5-----3------|-3---------------|
G#|-3---3-3-----1------|-----------------|
  |
  | Acoustic
e||-2--2-2------0--x---|-0----------------|
B||-4--4-4------2--x---|-0----------------|
G||-4--4-4------2--x---|-1----------------|
D||-4--4-4------2--x---|-2----------------|
A||-2--2-2------0--x---|-2----------------|
E||--------------------|-0----------------|


Verse 2 is similar to the previous verse, but some hammer-on and pull off notes differ.


Pre-Solo/Solo (2 Overdub Guitar parts written for one):
  slowly release bend
e|--------------------|----------------------|----------------------|
B|-0__________--------|----5/7--7-----5---7--|-7h9p7----------------|
G|-2b______gr2--------|----6/8--8-----6---8--|-8h9p8--9-------9--9--|
D|--------------------|----------------------|--------9-------9--9--|
A|--------------------|----------------------|----------------------|
E|--------------------|----------------------|----------------------|

e|--------------------|----------------------|----------------------|
B|-5/7--7-----5---7---|-7h9h7--7p5h7---5--5--|----5/7--7-----5---7--|
G|-6/8--8-----6---8---|-8h9p8--6-------6--6--|----6/8--8-----6---8--|
D|--------------------|----------------------|----------------------|
A|--------------------|----------------------|----------------------|
E|--------------------|----------------------|----------------------|

e|--------------------|-----------------------------|---------------12NH---|
B|-7h9p7--------------|-----7----7-----10---7-------|----------12NH--------|
G|-8h9p8--9-----9--9--|-----9b11-9b11____---9b11r9--|-7~~~-----------------|
D|--------9-----9--9--|-----------------------------|----------------------|
A|--------------------|-----------------------------|----------------------|
E|--------------------|-----------------------------|----------------------|

Play Chorus to end song
-------------------------------------------------------------------


TONIC - "Mountain"
Words & Music by Emerson Hart


Tuning = Capo III, Double Drop D Tuning:

1 = D
2 = B
3 = G
4 = D
5 = A
6 = D

Intro:

Gtr. 1: (acoustic)

--------------------0----0-|-----0--------------------------|-----|
---------3---3------3--3---|---------------3----------------|-----|
-v0-2^-----------2---------|-2-----2--2-2-v2-4-2^-0--0--0-2-|-v0--|
-----------------0---------|--------------------------------|--0--|
---------------------------|--------------------------------|-----|
---------------------------|--------------------------------|-----|

-----0-0---0-------0---0-|------------------------------------|---|
-------3------3----3-----|-----3-3-3-----3--------3---------3-|---|
-2^----2--------2--------|-2-----2---2--v2-4-2^-0---------0---|---|
-------------------------|--------------------------v0-2^-----|-2-|
-------------------------|------------------------------------|---|
-------------------------|------------------------------------|---|

-------0-------------------|---------0--------------|---------0---|
---3-----3---------------3-|------3-----3-------3-3-|---------3---|
---0-----0--0---0----------|------0-------0-----0-0-|-v0-2^---2---|
------------2--v2-3-2^-0---|--------------0--0------|--0----------|
---------------------------|-3---------------0------|--0----------|
---------------------------|------------------------|--0----------|

-0--0-0---0----|-----0-0---0---0-0----0----|--------0-----0---0-0-|
-3----3------3-|-------3-----3---3--3------|--3-----------3-3---3-|
------2--------|-2-----2---------2------0--|-v0-2^----2-----2---2-|
---------------|-0-------------------------|----------------------|
---------------|---------------------------|----------------------|
---------------|---------------------------|----------------------|

-0-0--0-|----0-0---------------0-----------0-|--------0-0---0--0--|
-3-3--3-|----3-3-3--3---3----3---v3------3---|--3-------3---3--3--|
--------|-2------2--0--v0-2^------2-4-2^-0---|-v0-2^----2---------|
--------|-0----------------------------------|--------------------|
--------|------------------------------------|--------------------|
--------|------------------------------------|--------------------|

-0----0---0-|-0----0-0----0---------0-0-------|------0---0-0-0-0--|
-3--3---3---|-3--3---3--3----3------3-3-3-----|------3-----3---3--|
-2------2---|--------2------v2-4-2^-----2--0--|-0----0---------0--|
-0----------|---------------------------------|-3--------------3--|
------------|---------------------------------|-------------------|
------------|---------------------------------|-------------------|

-0--0--|-0-0--0--0-0-------------0-0-|---------0-0--0-0--0-0-0-0-|
-3--3--|---3--3--3-3-------------3-3-|---------3-3----3--3-3-3-3-|
-0--0--|---0--0--0-0-------------0-0-|-v0-2^---2-2----2----------|
-3--2--|-------------0--0---0--------|--0------------------------|
-------|-------------2-----v2-3^-----|--0------------------------|
-------|-----------------------------|--0------------------------|

-0---0-0---0--0-0-0-0--0-0-|
-3---3-3---3--3-3-3-3--3-3-|
-2---2-2---2--2-2-2-2--2-2-|
-0---0-0---0--0-0-0-0--0-0-|
-0---0-0---0--0-0-0-0--0-0-|
---------------------------|

Gtr. 2 (electric) plays during last measure of Intro:

--------------v0--|
--------------v3--|
--------------v2--|
--------------v0--|
--------------v0--|
--------------v0--|


Verse:

Gtr. 1:

Rhy. Fig. 1:

-0----0---0--0-0-0-0-0-0-0-|-0--0-0-0--0-0--0-0-2-2-2-2-|------0--|
-3----3---3--3-3-3-3-3-3-3-|-3--3-3-3--3-3--3-3-3-3-3-3-|-1----3--|
-2----2---2--2-2-2-2-2-2-2-|-2--2-2-2--2-2--2-2-2-2-2-2-|-0----0--|
-0----0---0--0-0-0-0-0-0-0-|-0--0-0-0--0-0--0-0-0-0-0-0-|-0----0--|
-0----0---0--0-0-0-0-0-0-0-|-0--0-0-0--0-0--0-0---------|---------|
---------------------------|----------------------------|---------|

-0--0-0--0-0-0-0-|-0----0---0-0-0-0--0-0-0--|-0----0--0-0-0-0------|
-3--3-3--3-3-3-3-|-3----3---3-3-3-3--3-3-3--|-1----1--1-1-1-1-3--3-|
-0--0-0--0-0-0-0-|-2----2---2-2-2-2--2-2-2--|-0----0--0-0-0-0-0--0-|
-0--0-0--0-0-0-0-|-0----0---0-0-0-0--0-0-0--|-0----0--0-0-0-0-0--0-|
-----------------|-0----0---0-0-0-0--0-0-0--|----------------------|
--------------------------------------------|-3----3--3-3-3-3-5--5-|

                                    * End Rhy. Fig. 1
--2--|-2-2-2-2-2--2-0--0-0--0-0-0-0-|
--3--|-3-3-3-3-3--3-3--3-3--3-3-3-3-|
--2--|-2-2-2-2-2--2-2--2-2--2-2-2-2-|
--0--|-0-0-0-0-0--0-0--0-0--0-0-0-0-|
-----|------------------------------|
-----|------------------------------|

Gtr. 1 plays Rhy. Fig. 1

Gtr. 2:

----------------|-------------------|--------------|--------------|
----------------|-------------------|--------------|--------------|
----------------|----------------2--|-0------------|-v0-2^--------|
----------------|-------------0-----|--------------|--0-----------|
----------------|----------0--------|--------------|---------0----|
----------------|-------------------|--------------|--------------|

----------|------------------------------|--------------------|-0-|
-------0--|------------------------------|--------------------|-3-|
-------0--|-----------0--0---------v0-2^-|--------------------|-2-|
----0-----|-------0-------------0---0----|-----------------0--|-0-|
-0--------|----3-------------------------|------0-------------|-0-|
----------|-3--------------3/5-----------|---0----------------|-0-|

------------|-------------------|--------------|------------------|
------------|-------------------|--------------|------------------|
------------|----------------2--|-0------------|-v0-2^------------|
------------|-------------0-----|-0------------|--0---------------|
------------|----------0--------|--------------|---------------0--|
------------|-------------------|--------------|----------0-------|

----|---------------------------|---------------|
----|---------------------------|---------------|
-0--|-----------0---------------|------2--------|
-0--|-------0------0------------|------0--------|
----|----3----------------0-----|---0-----------|
----|-3--------------3/5-----0--|---------------|


Chorus:

Gtr. 1:

Rhy. Fig. 2:
                                        End Rhy. Fig. 2 *
----------------0--0-0-0--|--0-0-0-0--0-0-0-0-0--0-0-0--|
-3----3---3-3-3-1--1-1-3--|--3-3-3-3--3-3-3-3-3--3-3-3--|
-0----0---0-0-0-0--0-0-2--|--2-2-2-2--2-2-2-2-2--2-2-2--|
-0----0---0-0-0-0--0-0-0--|--0-0-0-0--0-0-0-0-0--0-0-0--|
--------------------------|-----------------------------|
-5----5---5-5-5-3--3-3----|-----------------------------|

Gtr. 1 plays Rhy. Fig. 2, 2 times, then plays:

----0-0-0-0--------0-0-0-0--0-0-|-------0-0-2--0--0-0--0-0--0-0--|
----3-3-3-3--------3-3-3-3--3-3-|-------3-3-3--3--3-3--3-3--3-3--|
----0-0-0-0--------0-0-0-0--0-0-|-v0-2^-2-2-2--2--2-2--2-2--2----|
-0----------0-------------------|--0-----------------------------|
-2---------v2-3^----------------|--------------------------------|
--------------------------------|--------------------------------|

-----0-0-0--------0--0-0----|
-----3-3-3--------3--3-3----|
-----0-0-0--------0--0-0----|
-0---------0----------------|
-2--------v2-3^-------------|
----------------------------|

Gtr. 2:

-----------------------|--------------|--------------------------|
-----------------------|--------------|--------------------------|
-----------0-----------|--------------|-------0---0--------------|
-------0---------------|-----0--------|-------0------------------|
----5-------------0----|--0-----------|-5--5--------------0------|
-5-------------3--0----|--------------|-5------------5-3-----0---|

--------------|-----------------------|---------------------|------|
--------------|-----------------------|---------------------|------|
--------------|-----------------------|------------------0--|------|
-----0--------|-------0---------------|-----0---------------|----0-|
--0-----------|----5------------0-----|--0------------------|-2----|
--------------|-5----------5\3-----0--|---------------------|------|

---------------------|--------------------|----------------|
---------------------|--------------------|----------------|
----------------0----|-v0-2^--------------|----------------|
--0----------0-------|--0-----------------|----------------|
----v2-3^------------|--0-----------------|----------------|
---------------------|--0-----------------|----------------|

Gtr. 1 & 2:

-0----0---0-0-0-----0--0-0-|-0-0--0-0-0--0-0-0--0-0--0---0----|
-3----3---3-3-3-----3--3-3-|-3-3--3-3-3--3-3-3--3-3--3---3----|
-2----2---2-2-2-----2--2-2-|-2-2--2-2-2--2-2-2--2-2--2---2----|
-0----0----v3-0^----0------|v3-0^--v0-0^--v0-0^-0----0---0----|
-----------------3---------|-------------------v3-0^-X---0----|
---------------------------|-------------------------3~--0----|


Verse:

Gtr. 1 & 2 play Rhy. Fig. 1, 2 times, then play:

Rhy. Fig. 3:
                                             End Rhy. Fig. 3 *
-----0-0-0----------0-0-0-0-|-0-----0---0--0----0-0--0-------|----|
-----3-3-3----------3-3-3-3-|-3-----3---3--3----3-3--3-------|----|
-----0-0-0--------0-0-0-0-0-|v0-2^--2---2-v0-2^-2-2--2-2--0--|----|
-0---------0---0--0---------|-0-------0----0----0-0--0-0--0--|-0--|
-2---------3---3------------|-0------------------------------|-2--|
----------------------------|-0------------------------------|----|

---0-0-0----0-0-0-0-0-0-0--|-0------0--0-0-0--0---0--|--0--0-0-0--|
---3-3-3----3-3-3-3-3-3-3--|-3------3--3-3-3--3---3--|--3--3-3-3--|
---0-0-0----0-0-0-0-0-0-0--|v0-2^---2--2-2-2--2---2--|--2--2-2-2--|
---------0-----------------|-0------0--0-0-3--0---0--|--0-----v3--|
---------3-----------------|----------------------3--|------------|
---------------------------|-------------------------|------------|

-0--0-0--0---0----|
-3--3-3--3---3----|
-2--2-2--2---2----|
-0^-0----0---0----|
---v3-0^-X---0----|
---------3~--0----|


Bridge:

Gtr. 1:

------------^7\----|-\5------------|------------------|-----------|
------------^7\----|-\5------------|------------------|----7------|
------------^7\----|-\5------------|--------------5/--|/7---------|
-------------------|---------------|------------------|-----------|
-------------------|---------------|------------------|-----------|
-------------------|---------------|------------------|-----------|

----7/9-|\7--------^7\----|-\5--------5--------|-----------------|
--------|----------^7\----|-\5-----------5-----|-------------5/--|
--------|----------^7\----|-\5--------------5--|-----------------|
--------|-----------------|--------------------|-----------------|
--------|-----------------|--------------------|-----------------|
--------|-----------------|--------------------|-----------------|

-----7----7----------|
-/7------------------|
---------------------|
---------------------|
---------------------|
---------------------|

Gtr. 2:

-^4---------4--4---------|------------------------0----|------0---|
-^3----3---------3----0--|-------1---3---1-------------|-1--1---1-|
-^2----2-----------2-----|----0--0-----0------------0--|-0------0-|
-^0-------0--------------|-2-----2---------v0-2^-------|-2------2-|
-^0----------------------|-0----------------0----------|-3--------|
-^0----------------------|-----------------------------|----------|

---0--------------|-----0-0--0-0--0-0--0-----|-^4-----4----4------|
-1----1-----------|-----3-3--3-3--3-3--3-----|-^3--3--3--3----3---|
--------v0-----0--|-2-----2---------2--2--0--|-^2-----2---------2-|
---------0-2^--0--|-0------------------------|-^0-----------------|
------------------|-0------------------------|--------------------|
------------------|-0------------------------|--------------------|

-4-----|-----------0------------0--|------0--------------------|--|
-3-----|-1------------1---------1--|--------1----1-1-3--1-1-0--|--|
-2-----|-0-----0----------------0--|--------0----0-0-0--0-0-0--|--|
----0--|-2--2----------v0-2^--2----|----2---2----2----------0--|--|
-------|-0-------------------------|-3-------------------------|--|
-------|---------------------------|---------------------------|--|

----------0------------|
-------------3----3----|
------2--------2--2----|
-0----0-----------0----|
-0----0----------------|
-0---------------------|

Gtr. 1 & 2:

----------0----------0----|-------0---0----------0----|-----------|
-3----3------3-----3---2--|-------3------3-----3------|-v0-2^---2-|
-2-------------2-2--------|----2--2--------2-2-----2--|--2------2-|
-0------------------------|-0-------------------------|-----------|
--------------------------|---------------------------|-----------|
--------------------------|---------------------------|-----------|

---0---------0-------|--------0----0-------0-------|-------0---0--|
------2----2---2---2-|------2-2-------2------2---0-|-1---1--------|
-2------2--------2---|----2---2--2-------2-----2---|-2------------|
---------------------|-0---------------------------|--------------|
---------------------|-----------------------------|--------------|
---------------------|-----------------------------|--------------|

------0-----0-|------------0--------0-------|-----------0-------0-|
1-------1-----|----1--1-------1-------1---0-|------0-------0------|
--2-2-----2---|-------2--2------2-2-----2---|------2--2-------2---|
--------------|-0---------------------------|-0-------------------|
--------------|-----------------------------|---------------------|
--------------|-----------------------------|---------------------|

-----|----------------|
0----|-0--------------|
--2--|-0--------------|
-----|----------------|
-----|----------------|
-----|----------------|


Guitar Solo:

Gtr. 1 plays Rhy. Fig. 2, 4 times

Gtr. 2:

---~~~~~~------------------|--------------------------------------|
-15~~~~~~-X----------------|--------------------------------13----|
-15-------X--15~~~~----13--|-(13)~~-------------------------13----|
---------------------------|----------------------~~~~~~-15-------|
---------------------------|---------v15-13^-15-15----------------|
---------------------------|--------------------------------------|

----|--------------------------------------|----------------------|
----|-------------------------------~~~~~~-|--~~~~~~--------------|
----|--8---8~~~~----8~~~~--(8)--7--5-------|-5-5-5--7-7-9-7-9--10-|
12--|--------------------------------------|--------8-8-8-8-8-----|
----|----6---------------------------------|----------------------|
----|--------------------------------------|----------------------|

--------|----------------------------------------|----------------|
--------|---~~~~~~------X----------16-16------16-|-16------16-----|
10-10/--|-15----15---15-X--15~~~~-----15~~~~-----|-15~~~~---------|
--------|----------------------------------------|----------------|
--------|----------------------------------------|----------------|
--------|----------------------------------------|----------------|

--------------------------------------------------|---------13-13-|
16------16-16------------------------~~~~~~-------|---------13-13-|
15~~~~-----15~~~~--(15)-13-15~~~~--13-------13-13-|-15~~~~--------|
--------------------------------------------------|---------------|
--------------------------------------------------|---------------|
--------------------------------------------------|---------------|

---------13-----13--------------------------------|---------------|
16~~~~---16~~~~-16~~~~-16~~~~--(16)-13--------16--|---16----------|
---------------------------------------15~~~~-----|---15~~~~-(15)-|
--------------------------------------------------|---------------|
--------------------------------------------------|---------------|
--------------------------------------------------|---------------|

-------------------------------------|
-------------------------------------|
13----13-13-v15-13^------~~~~~~------|
---15---------------15-15-------13\--|
-------------------------------------|
-------------------------------------|

Outro-Chorus:

Gtr. 1 & 2 play Rhy. Fig. 2, 3 times, then:

Gtr. 1 & 2 play Rhy. Fig. 3, 2 1/2 times, then play:

-0----0--0-0-0-0-----0---0-|-0-0--0-0-0--0-0-0--0-0--0--0----|----|
-3----3--3-3-3-3-----3---3-|-3-3--3-3-3--3-3-3--3-3--3--3----|----|
-2----2--2-2-2-2-----2---2-|-2-2--2-2-2--2-2-2--2-2--2--2----|----|
-0----0-----v3-0^----0-----|v3-0^--v3-0^--v3-0^-0----0--0----|----|
------------------3--------|-------------------v3-0^-X--0----|----|
---------------------------|-------------------------3~-0----|----|

========================================================================

Tonic - 'Thick'
From 'Lemon Parade'
tuning: Rhythm is DGDGBD (Open G tuning)
        Lead is standard
tabbed by jjhand
Enjoy and please rate my tabs so others will check them out too!

Intro- Fuzz Distorted Rhythm Guitar & vocal, play 2x

  Dm
D|-8---8---8---8---8-7---|-5---5---5--0-0-0-0-0-0--|
B|-8---8---8---8---8-8-6-|-6---6---6--2-2-2/3-3-3--|
G|-0---0---0---0---0-0-0-|-0---0---0--0-0-0-0-0-0--|
D|-0---0---0---0---0-0-0-|-0---0---0--0-0-0-0-0-0--|
G|-0---0---0---0---0-0-0-|-0---0---0--0------------|
D|-----------------------|-------------------------|
Lyrics:  "Oh my sugar she won't bend,"

D|--------8----------8-----|-5---5---5--0-0-0-0-0-0--|
B|--------8----------8-----|-6---6---6--2-2-2/3-3-3--|
G|-0-0-0--0---0-0-0--0-0-0-|-0---0---0--0-0-0-0-0-0--|
D|-0-0-0--0---0-0-0--0-0-0-|-0---0---0--0-0-0-0-0-0--|
G|-0-0-0--0---0-0-0--0-0-0-|-0---0---0--0------------|
D|-------------------------|-------------------------|
               "Fly with me"

 On repeat: "On your love she will depend,  Fly with me"



Verse: Repeat these 4 bars 4x
   G                              F            * first time only
D|------------------------------|------------------------------|
B|------------------------------|------------------------------|
G|------------------------------|--------------------------*3--|
D|------------------------------|--------------------------*3--|
G|-7--7--7-----7-7-7-7--7---7-7-|-5--5--5----5-5-5-5--5---5-5--| 
D|-5--5--5-----5-5-5-5--5---5-5-|-3--3--3----3-3-3-3--3---3-3--| 
   
1.	"When you're down and feelin' low"
2.      "Not quite paid for; not quite sold"
3.	"And they all have got you tricked"
4.	"And the world has left you thick"

   C           F   C
D|-----------------------------|----------------------------------|
B|-------5h6---6-6-5-5---------|----------5h6-6-6-6p0-------------|
G|-5--5--5-----5-5-5-5---x-x-5-|-(5)---5--5---5-5-5p0-------------|
D|-5--5--5h7---7-7-5-5---x-x-5-|-(5)---5--5h7-7-7-7p0-------------|
G|-5--5_______________---x-x-5-|-(5)---5--------------5-5-5-5-5-5-|
D|-----------------------------|----------------------3-3-3-3-3-3-|
   ^
  no vocal on this line



Chorus - Let notes ring and play all 2x through for 8 bars total

  play 3x                                4th bar:  
   Rhythm                                       
D|----------------------0---|            |-----------------|
B|----------------------3---|            |-3--------3------|
G|----------------------3---|            |-3-----3------3--|
D|-3/5\3/5\3p0----------5---|            |-5---------------|
G|-3/5\3/5\3p0----5--0--0---|            |-0---------------|
D|----------------3---------|            |-----------------|
 |
 | Lead
e|--------------------------|            |-----------------|
B|--------------------------|            |-----------------|
G|-3/5\3/5\3p0--------------|            |-8-----8-----8---|
D|-3/5\3/5\3p0----------5---|            |-6-----6-----6---|
A|----------------3--/5-5---|            |-6-----6-----6---|
E|----------------1--/3-3---|            |-----------------|

1. "My love,    she dreams,    when she sleeps with broken faces inside"
2. "Cold water,  runs deep,     when she sleeps with broken faces"



Play Verse riff Again

Before 2nd Chorus, Lead Guitar plays (at 2:01)
e|-----------------|-----------------|---------------------|
B|-----------------|-----------------|---------------------|
G|-----------------|-----------------|---------------------|
D|-----------------|-----------------|---------------------|
A|-2-------2--3--5-|-3---------------|---------------------|
E|-----------------|---------5--3--1-|-3-------------------|


Play Chorus again



Solo:
  play this line 2x
e|-------------------------------|----------------------------------|
B|---5---5---5-----5---5---5-----|---5---5---5-----6----6----6------|
G|---7b9-7b9-7b9---7b9-7b9-7b9---|---7b9-7b9-7b9---8b10-8b10-8b10---|
D|-------------------------------|----------------------------------|
A|-------------------------------|----------------------------------|
E|-------------------------------|----------------------------------|


  bar 5
e|---------------------------------|--------------------------------|
B|---------------------------------|----------------5-5-8b10__b10~~-|
G|-b9r7-5-7~---5-7-5---5---------5-|-------5---5-7b9----------------|
D|-------------------7-----7-5h7---|---------7----------------------|
A|---------------------------------|-5------------------------------|
E|---------------------------------|---8-5--------------------------|

e|-5-5---------------5-5-------------|-----5-5---------------------------|
B|-5-5-5---5---5-----5-5-5---5---5---|-5---5-5-5---------------6----6----|
G|-----7b9-7b9-7b9-------7b9-7b9-7b9-|-7b9-----7b9---7b9r7-5-7-8b10-8b10-|
D|-----------------------------------|-----------------------------------|
A|-----------------------------------|-----------------------------------|
E|-----------------------------------|-----------------------------------|

Rhythm part during solo (play 8x)
D|--------------------------|-------------------------|
B|--------------------------|-------------------------|
G|-6-6-6---6---6-6-6---6----|-6-6-6---6---7-7-7---7---|
D|-5-5-5---5---5-5-5---5----|-5-5-5---5---6-6-6---6---|
G|-6-6-6---6---6-6-6---6----|-6-6-6---6---7-7-7---7---|
D|-7-7-7---7---7-7-7---7----|-7-7-7---7---8-8-8---8---|



Next:
Play first line of Intro 4x on Rhythm Guitar, and add :

Acoustic Intro (use acoustic simulator to get acoustic tone if you don't have one)
D|-0-0-0-0-0----0--0-0-0-0----|-0-0-0-0-0---0-0--0--0-0-0-0-0--|
B|-2/3-3-3-3----3--3-3-3-3----|-3-3-3-3-3---3-3--2--2-2/3-3-3--|
G|-0-0-0-0-0----0--0-0-0-0----|-0-0-0-0-0---0-0--0--0-0-0-0-0--|
D|-0-0-0-0-0----0--0-0-0-0----|-0-0-0-0-0---0-0--0--0-0-0-0-0--|
G|-0-0-0-0-0----0--0-0-0-0----|-0-0-0-0-0---0-0--0--0-0-0-0-0--|
D|----------------------------|--------------------------------|



Play Chorus once more and go to ending:

Lead Ending (with Rhythm playing first line of intro 6x)
D|-0--0--0----0--0-0--0---|-0--0-0--0---0---0-0-0-0-0-0-0--|
B|-3--3--3----3--3-3--3---|-3--3-3--3---3---2-2-2-2/3-3-3--| play 6x
G|-0--0--0----0--0-0--0---|-0--0-0--0---0---0-0-0-0-0-0-0--|
D|-0--0--0----0--0-0--0---|-0--0-0--0---0---0-0-0-0-0-0-0--|
G|-0--0--0----0--0-0--0---|-0--0-0--0---0---0-0-0-0-0-0-0--|
D|------------------------|--------------------------------|
 
on last repeat, slow chords at ending
=====================================================================

Tonic - Wicked Soldier
From "Lemon Parade"
standard Tuning w/ crunchy distortion
tabbed by jjhand

Intro (2 guitars overlapping), play 2x

e|---------------------------|--------------------------|
B|--3/5---5-7-5-5---3----3---|-3/5---5-7-5-5---3----3---|
G|--5/7---7-7-7-7---5----5---|-5/7---7-7-7-7---5----5---|
D|--5/7---7-7-7-7---5----5---|-5/7---7-7-7-7---5----5---|
A|--3/5---5-5-5-5---3----3---|-3/5---5-7-5-5---3----3---|
E|---------------------------|--------------------------|

                              F
e|---------------------------|-7-7--7-7--7-7--7-7--7-7-7-|
B|--3/5---5-7-5-5---3----3---|-8-8--8-8--8-8--8-8--8-8-8-|
G|--5/7---7-7-7-7---5----5---|-7-7--7-7--7-7--7-7--7-7-7-|
D|--5/7---7-7-7-7---5----5---|-5-5--5-5--5-5--5-5--5-5-5-|
A|--3/5---5-7-5-5---3----3---|---------------------------|
E|---------------------------|---------------------------|

Guitar 2 plays this chord during fourth bar each time:
  e|-1-1--1-1--1-1--1-1--1-1-1--|
  B|-1-1--1-1--1-1--1-1--1-1-1--|
  G|-2-2--2-2--2-2--2-2--2-2-2--|
  D|-3-3--3-3--3-3--3-3--3-3-3--|
  A|-3-3--3-3--3-3--3-3--3-3-3--|
  E|-1-1--1-1--1-1--1-1--1-1-1--|


Verse Rhythm Riff:
   D7add_B
e|-5--------------------------------|
B|-0--------------------------------|
G|-5-&-&-&-&-&-&-&-&-&-&-&-&-&-&-&--| play 11x 
D|-0--------------------------------|
A|-5--------------------------------|
E|----------------------------------|
 strum this chord in a 16th note rhythm (& is the repeated chord)

Lead (after intro):
e|---------|-----------|-----------|--------------------|
B|---------|-----------|-----------|-----b8r7~~~b8r7~~--|
G|---------|-----------|-----------|--------------------|
D|---------|-----------|-----------|--------------------|
A|-/5------|-(5~)------|-/5~-------|-(5~)---------------|
E|---------|-----------|-----------|--------------------|

 Lead Riff (play 2x, 6 bars total):
e|----------------|----------------|-----------------|
B|----------------|----------------|-----------------|
G|----------------|----------------|-----------------|
D|----------------|----------------|-----------------|
A|-3h5-----5~-----|-3h5-----5~-----|-3h5-----5~------|
E|----------------|----------------|-----------------|

first ending:
  Lead                         
e|-------------------|
B|-------------------|
G|-------------------|
D|-------------------|
A|-3-----------------|
E|---------3---------|
 |
 |Rhythm
e|---------7-7-7~--7\-|
B|---------8-8-8~--8\-|
G|-9---9---7-7-7~--7\-|
D|-10--10--9-9-9~--9\-|
A|-10--10-------------|
E|-8---8--------------|
  

Repeat Rhythm Riff and Lead riffs together for 7 bars
until 'Prechorus':

  Lead
e|--------------|-3------------|
B|--------------|--------------|
G|--------------|--------------|
D|--------------|--------------|
A|--3-----------|--------------|
E|--------------|--------------|
 |
 |Rhythm
e|--------------|-/7---7~~7~~\-|
B|-/8---8-------|-/8---8~~8~~\-|
G|-/9---9-------|-/7---7~~7~~\-|
D|-/10--10------|-/9---9~~9~~\-|
A|--------------|--------------|
E|--------------|--------------|



Chorus (play number of times indicated) 

  Rhythm
   Dsus2          F               Gsus2
e|--------------|-5-------------|-5------------|-5--------5--------|
B|-5------------|-6-------------|-8------------|-8--------6--------|
G|-7--(16x)-----|-5---(16x)-----|-7--(16x)-----|-7-(8x)---5-(8x)---|
D|-7------------|-7-------------|-5------------|-5--------3--------|
A|-5------------|---------------|--------------|-------------------|
E|--------------|---------------|--------------|-------------------|
 |
 |Lead
e|--------------|---------------|--------------|--------------|
B|--------------|---------------|--------------|--------------|
G|--------------|---------------|--------------|--------------|
D|--------------|---------------|--------------|--------------|
A|-5------------|-/8------------|--------------|--------------|
E|--------------|---------------|-7------------|-7------------|


  Rhythm
e|--------------|-5-------------|-5------------|-5-------------|
B|-5------------|-6-------------|-8------------|-8-------------|
G|-7--(16x)-----|-5---(16x)-----|-7--(16x)-----|-7-(16x)-------|
D|-7------------|-7-------------|-5------------|-5-------------|
A|-5------------|---------------|--------------|---------------|
E|--------------|---------------|--------------|---------------|
Lead repeats previous line


After Chorus, play Intro, Verse, and Chorus Again (for both parts)


Before Solo Break, play this 2x
  Lead                        
e|-----------------|---------0-------|-----------------|-------------3/5\3--|
B|---------1-------|-----------1-----|---------1-------|---------1---1/3\1--|
G|-----2-----2-----|-----2-----------|-----2-----2-----|-----0---0----------|
D|---2---2-------4-|---2---2-------4-|---2---2-------4-|---2---2------------|
A|-0-------------2-|-0-------------2-|-0-------------2-|-3------------------|
E|-----------------|-----------------|-----------------|--------------------|
 |
 |Rhythm 
 | play 3x                          fourth bar:
e|-5--5-5-5---5-5---7--|            |-8---8--8--8----8--8---8---|
B|-5--5-5-5---5-5---7--|            |-8---8--8--8----8--8---8---|
G|-5--5-5-5---5-5---8--|            |-9---9--9--9----9--9---9---|
D|-7--7-7-7---7-7---9--|            |-10--10-10-10---10-10--10--|
A|---------------------|            |---------------------------|
E|---------------------|            |---------------------------|

repeat Break for first 3 bars, then Rhythm ends with
e|-------------------|
B|-------------------|
G|-------------------|
D|-10---------10-9-7-|
A|-10---------10-9-7-| then, solo begins
E|-8-----------8-7-5-|


Solo
e|------------------------------|------------------------------|
B|------------------------------|-------13----13b15~--b15-b15--|
G|-12b14---b14r12-10--10~-12p10-|-12/14----14------------------|
D|------------------12----------|------------------------------|
A|------------------------------|------------------------------|
E|------------------------------|------------------------------|

e|-15b17--13-------------|---------------------------|
B|-----------15--15--15\-|---------------------------|
G|-----------------------|-12b14r12--10-12p10--------|
D|-----------------------|--------------------12-12--|
A|-----------------------|---------------------------|
E|-----------------------|---------------------------|

e|--------------------------------|----------------------------|
B|--------------------------------|---------------------13--13-|
G|-12-11-12-14-12-11h12p11--------|-11-12-14-12-11h12p11-------|
D|-12-12-12-12------------12---x/-|-12-12-12-------------------|
A|--------------------------------|----------------------------|
E|--------------------------------|----------------------------|

e|-10~--10~--10~--10~--10~--13p10-|-13----10----10~~~~\---|
B|--------------------------------|----------13-----------|
G|--------------------------------|-----------------------|
D|--------------------------------|-----------------------|
A|--------------------------------|-----------------------|
E|--------------------------------|-----------------------|


Play Chorus again 1 1/2 times, but lead changes to:
e|--------------|---------------|--------------|--------------|
B|--------------|---------------|--------------|--------------|
G|--------------|---------------|--------------|--------------|
D|--------------|---------------|--------------|--------------|
A|-5------------|-/8------------|-10-----------|-10-----------|
E|--------------|---------------|--------------|--------------|

e|--------------|---------------|--------------|--------------|
B|--------------|---------------|--------------|--------------|
G|--------------|---------------|--------------|--------------|
D|--------------|---------------|--------------|--------------|
A|-5------------|-/8------------|--------------|--------------|
E|--------------|---------------|-7------------|-7------------|

e|--------------|---------------|--------------|--------------|
B|--------------|---------------|--------------|--------------|
G|--------------|---------------|--------------|--------------|
D|--------------|---------------|--------------|--------------|
A|-5------------|-/8------------|-10-----------|-10-----------|
E|--------------|---------------|--------------|--------------|

As final bar of chorus repeats, lead holds the same note:
e|--------------|--------------|
B|--------------|--------------|
G|--------------|--------------|
D|--------------|--------------|
A|-10~~~~-------|-10~~~~-------|
E|--------------|--------------|


Play Intro again 2x, but Lead becomes:
e|---------------------------|--------------------------|
B|--3/5---5-7-5h7---3----3---|-3/5---5-7-5h7---3----3---|
G|--5/7---7-7-7-----5----5---|-5/7---7-7-7-----5----5---|
D|--5/7---7-7-7-----5----5---|-5/7---7-7-7-----5----5---|
A|--3/5---5-5-5-----3----3---|-3/5---5-7-5-----3----3---|
E|---------------------------|--------------------------|

e|---------------------------|-----------------------------|
B|--3/5---5-7-5h7---3----3---|-----------------------------|
G|--5/7---7-7-7-----5----5---|-12b14--12b14--12p10------12-|
D|--5/7---7-7-7-----5----5---|--------------------12----12-|
A|--3/5---5-5-5-----3----3---|-----------------------------|
E|---------------------------|-----------------------------|

Both parts:
   Rhythm
e|--------------------------------|----------------------------|
B|--3/5----5-7-5-5------3-----3---|-3/5---5-7-5-5--------------|
G|--5/7----7-7-7-7------5-----5---|-5/7---7-7-7-7------5--4--2-|
D|--5/7----7-7-7-7------5-----5---|-5/7---7-7-7-7------5--4--2-|
A|--3/5----5-5-5-5------3-----3---|-3/5---5-7-5-5------3--2--0-|
E|--------------------------------|----------------------------|
 |
 | Lead
e|--------------------------------|----------------------------|
B|--------------------------------|---------------------13--13-|
G|-12-11-12-14-12-11h12p11--------|-11-12-14-12-11h12p11-------|
D|-12-12-12-12------------12---x/-|-12-12-12-------------------|
A|--------------------------------|----------------------------|
E|--------------------------------|----------------------------|

   Rhythm
e|---------------------------|-7-7--7-7--7-7--7-7--7-7-7-|-5---
B|--3/5---5-7-5-5---3----3---|-8-8--8-8--8-8--8-8--8-8-8-|-6---
G|--5/7---7-7-7-7---5----5---|-7-7--7-7--7-7--7-7--7-7-7-|-5---
D|--5/7---7-7-7-7---5----5---|-5-5--5-5--5-5--5-5--5-5-5-|-3---
A|--3/5---5-7-5-5---3----3---|---------------------------|-----
E|---------------------------|---------------------------|-----
 |
 |
e|---------------------------|----------------------------|------
B|---------------------------|----------------------------|------
G|-12-11-12-14-12-11h12p11---|-12b14--12b14--r12p10----12-|-10---
D|-12-12-12-12------------12-|----------------------12----|------
A|---------------------------|----------------------------|------
E|---------------------------|----------------------------|------
========================================================================

TONIC - "Mr. Golden Deal"
From "Lemon Parade" Album
tabbed by jjhand for 3 parts 


Tuning on Electric/Acoustic/Slide guitar = Open D9, Capo 4th fret 
1 = E
2 = A
3 = F#
4 = D
5 = A
6 = D

I tried to redo this tab using Version 1 as a starting point to make it 
easier to follow since rhythms are tricky in this song. Please Rate or 
Comment.


Intro ('Main Acoustic Riff' starts at **)

                **
|-------------|---------------5-------|-------------------------------|
|-------------|-----0---0--0----0-----|---0---0-----------------------|
|-------------|-----3---3--3------3---|---3---3-------3--3\1----------|
|--------0----|---------0--0----------|-0---0----0----0--0----------0-|
|-2--/4___----|-------4-4-----------4-|----------4________\2-2--/4___-|
|-----------5-|(5)--------------------|-------------------------------|


|------------0---------------|--------------------------|
|----0---------0-------0-----|-------0----0-------------|
|--------0-------0---0-----0-|-------0----3-------------|
|-2------2-----------2-------|----2--2--0----------0----|
|------0-----------0-----0---|-0------------2--/4-------|
|-0--------------------------|------------------------5-|





Verse 1:

Play Main Acoustic Riff 1x to lyrics : 

"Swallow your pride, make way for the new bride"



Continue Verse 1:
|-----------------5--------|------------------------------|
|-------0---0--0-----0-----|---0---0-----------0----------|
|-------3---3--3-------3---|---3---3---------3-----3---1/3|
|-----------0--0-----------|-0---0----0----0-----0-0-0-0--|
|---------4-4------------4-|----------4--4---------4---2/4|
|-(5)----------------------|------------------------------|
"Holding your tongue                 when they call another"


|--------------0--------|----------------0-------------|
|-0---0---0-------0-----|---0---------------0----------|
|-0---------0-----------|-0--------------------0--0--0-|
|-0--2------2-------0h2-|---------0---0----------------|
|-0---------------------|-----0h2-0---0----------------|
|------------0----------|------------------------------|
"winner                                     and though there is"





Prechorus 1 (0:44)

Acoustic & Electric                * Electric only from here on
|-------------0--0-------|--------------------0--------|
|----------0-----0--0--0-|-(0)------------0------0-----|
|-------0--------------3-|-(3)----------3------------0-|
|----0-----------------2-|-(2)--------2-----2------2---|
|-2--------------------0-|-(0)-------------------------|
|------------------------|-----------------------------|
"more             to this life"





Chorus 1 - Electric only
|----------0--------------|----------3------2--0-----|
|-------------------------|-------------0----------0-|
|-1----1----1---1----1----|------1-----------------0-|
|-----------0h2-0----0----|---0-----------0------0---|
|-3----3----3---3--0-0h2--|--------------------------|
|-------------------------|--------------------------|
"Hey Mr. Golden Deal,         tell me how does she feel?"

|-----------0---------------|--------------|
|------0------0-------0-----|--------------|
|------0------------0-------|-0------------|
|---------------0h2-----0---|-0------------|
|-----------------------0h2-|-0------------|
|-0-------------------------|--------------|
                               "Shes like the wind..."



********************************************************************



Verse2 (1:05) 

  Acoustic - Each full chord is strummed reverse (high to low)
|-3---3-------3-------3-------|-3-------3------------------|
|-0-------0-------0-------0---|-----0---------0------------|
|-1---------3-------3-------3-|-------3-----1--------------|
|-0---------------------------|------------------------0---|
|-2---------------------------|-------------------2-/4-----|
|-0---------------------------|----------------------------|
|
| Electric
|-----------------------------|----------------------------|
|-0-----------3-----------0---|-------------0--------------|
|-1---------------0---------1-|---------1------------------|
|-0---------------------0-----|-----------0------------0---|
|-2-----------------0h2-------|-------------------2-/4-----|
|-0---------------------------|----------------------------|
                                         "That boy couldn't"


  Acoustic
|-0-------0---------------|----0-0------------------|
|-0---0-0---0-------------|----0-0------0-----------|
|-0---0-0-----0-0-0-0-0---|-0------0--0-------------|
|-2---2-2-----2-4-4-4-4p2-|-4------4------------0---|
|-0-----------------------|---------------2--4------|
|-0-----------------------|-----------------------5-|
|
| Electric
|--------0----------------|-----------0-------------|
|-0--------0-------0------|--------0----------------|
|-0--------------0--------|--------0----------------|
|-2----------0h2----------|-0------0------------0---|
|-0-------------------0-2-|---------------2--4------|
|-0-----------------------|-----------------------5-|
 "sail.                       He says "I've washed these" 



  Acoustic
|----------5-----5---5---5-|-5---5-5-----------------|
|----------------0---0---0-|-0---0-0-----------------|
|----------------x---x---x-|-------3---3-------------|
|--0---0-----0---0---0---0-|---------0----------0----|
|----4---------4---4---4---|-------------2--/4-------|
|--------------------------|-------------------------|
|
|
|----------------------3---|-----------3-------------|
|------------------------0-|-0-----------------------|
|------3-----------1-------|-------1-----------------|
|----5-----5-----0---------|--------------------0----|
|--------------2-----------|-------------2--/4-------|
|(5)-----------------------|-------------------------|
 "decks for years                  I've carried those"



  
|-0---------0---------------|----0-----0-------------|
|-0----0--0-0-0---0-------0-|------0------0-----0--0-|
|-0----0--0-0---0-0-0-0-0-3-|------0---------0-------|
|-2----2--2-----2---0-2-2---|------2---------2h4-----|
|-0-------------------------|------------------------|
|-0-------------------------|------------------------|
|
| Elec.
|-0---------0---------------|----------0-------------|
|-0-----------0-------0-----|------0------0-----0--0-|
|-0-----------------0-------|------0---------0-------|
|-2-------------0h2---------|-0----0-----------------|
|-0---------------------0h2-|------------------------|
|-0-------------------------|------------------------|
"pails                            and though there is"




Play Prechorus Again similarly (both guitars this time)










Chorus 2 (parts are repeated similarly) play this & part 2 2x

Acoustic
|-0----0---0-------------|-----------3-----3---------|
|-0----0---0-------------|-------------0------0---0--|
|-1----1-----1----1------|---------------1------1----|
|-2----2-----0h2--0------|---------------------------|
|-3----3-----3----3---3--|-2-------------------------|
|------------------------|---------------------------|
|
| Elec
|----------0-------------|-----------3-----3---------|
|-0----------------------|-------------0------0---0--|
|------1----------1------|--------1------1------1----|
|------------0h2------0--|-0----0--------------------|
|------------------------|-2-------------------------|
|------------------------|---------------------------|
|
| Dist. Slide Guitar (* no slide on 1st time, hold 10th fret)
|------------------------|---------------------------|
|-12\10*--------------10\|\5-------------------------|
|-12\10*--------------10\|\5-------------------------|
|-12\10*--------------10\|\5-------------------------|
|------------------------|---------------------------|
|------------------------|---------------------------|
1.       "Hey Mr. Golden Deal...    how does she feel?"
2. "Does she hold you in the night, does she tell you evetything's gonna be alright?"


part 2 of Chorus 2 (go back to line above for repeat)

Acoustic
|----------0---0-0-0-0-0-0-|-----0-0---0-0-0-0-0-0-0-0-0-|
|------------0-0-0-0-0-0-0-|-----0-0---0-0-0-0-0-0-0-0-0-|
|-0----0-------0-0-0-0-0-0-|-0---0-0---0-0-0-0-0-0-0-0-0-|
|-2----2-------2-2-2-2-2-2-|-2-----2-----2-2-2-2-2-2-2-2-|
|-0----0-------0-0-0-0-0-0-|-0-----0-----0-0-0-0-0-0-0-0-|
|-0----0-------0-0-0-0-0-0-|-0-----0-----0-0-0-0-0-0-0-0-|
|
|
|----------0---------------|-------------0-------0-------|
|-0----0-----0-------------|-------0-------0-----0-------|
|-0----0-------------3-----|-------0---------0---0-------|
|-2----2-------2/4---------|-0-----0-------------0-------|
|-0----0---------------0h2-|-----------------------------|
|-0----0-------------------|-----------------------------|
no slide guitar in part 2





Chorus Ending

|-0----0---0-------------|------------------------|
|-0----0---0-------------|------------------------|
|-1----1-----1----1------|------------------------|
|-2----2-----0h2--0------|------------------------|
|-3----3-----3----3---3--|-2----------------------|
|------------------------|------------------------|
|
| Elec
|------------------------|------------------------|
|------------------------|------------------------|
|------------------------|------------------------|
|-2----0h2---0h2--0------|------------------------|
|-3----3-----3----3------|-2----------------------|
|------------------------|------------------------|
|
| Dist. Slide Guitar
|------------------------|---------------------------|
|-12\10---------------10\|\5-------------------------|
|-12\10---------------10\|\5-------------------------|
|-12\10---------------10\|\5-------------------------|
|------------------------|---------------------------|
|------------------------|---------------------------|
        "Hey Mr. Golden Deal...    how does she feel?"




Bridge, Part 1 (played 2x):

Acoustic
|-----------------------|----------------------||
|---------0----------0--|-------0--------------||
|-----0-----------------|----------------------||
|-0-0-----------2-------|----------------------||
|------------4----------|-2--------------------||
|-----------------------|----------5-----------||
|
|Electric
|-----------------------|----------------------||
|---------0----------0--|-------0--------------||
|-----0-----------0-----|----1-----------------||
|-0---------------------|----------------------||
|------------4----------|-2--------------------||
|-----------------------|----------5-----------||
 "Captain, oh my captain steer the first mate true"        
 "The men they sing a song of fear Ghosts of ships who failed before"



Bridge Ending (2:31, 6/4 time)

Acoustic
|-0------0---------------------------|---------0-------0-------------------|
|---0------0-------------------0-0---|-----0-----0-------0-----------------|
|------0-----------------------1-0---|-----0-------0-------0-0-------------|
|------------4-4-4\2-0---------0-0---|---------------0-----4-4-4\2-0-0-----|
|-----------------------4\2-0--2-0---|-------------------------------4\2-0-|
|------------------------------------|-0-----------------------------------|
|
|
|------------------------------------|-----------|
|------------------------------------|-----------|
|------------------------------------|-----------|
|------------------------------------|-----------|
|------------------------------------|-----------|
|-(5)--------------------------------|-rest------|
And the caprain he is laughing                     You can't control the sea"



  Acosutic (last bar/chord is 2 beats)
|---------0------0----------------|-------------------------------|---|
|------------0-----0---0----------|-------------------------------|---|
|-----1--------1-----1---------1--|-------1--------1----0h1--1--1-|-0-|
|-0-------------------------0-----|----0--------0-------0----0--0-|-0-|
|-2----------------------2--------|-3-------2-----------0h2--2--2-|-0-|
|---------------------------------|-------------------------------|-0-|
|
| Electric
|-0-------------------------------|-------------------------------|---|
|-0-------------------------------|-------------------------------|---|
|-1----------------------------1--|-------1--------1----0h1--1--1-|-0-|
|---------------------------0-----|----0--------0-------0----0--0-|-0-|
|------------------------2--------|-3-------2---------------------|---|
|---------------------------------|-------------------------------|---|
           "She will always do as she pleases, it's her nature to be free"




Electric Guitar Solo (Acoustic plays Verse Riff w/ ad libs):

|--------------------0-|----------------------|--------------------------|
|--------0-------0-----|-0------0---------0---|----------0--------0----0-|
|-/5--7----8-------8---|---8------/5---7----8\|--------0----0---0--------|
|----------------------|----------------------|-2/4-----------4-----2h4p2|
|----------------------|----------------------|--------------------------|
|----------------------|----------------------|--------------------------|


|-------------0---------------|--------------------------------|
|--------0----------0----0----|---0--------10---0--------0-----|
|-----------0----/5---7----8--|-8/10--10-10-------10-10----8\7-|
|-0----0----------------------|--------------------------------|
|-----------------------------|--------------------------------|
|-----------------------------|--------------------------------|


|-------0--------------------|---------0-------------|---------|
|-----0----0--0----------0---|-----0-------0---------|---------|
|-8---------8---8\3----------|-----------------------|---------|
|--------------------0-4h2-0-|-2---------------4h2h0-|-0-------|
|----------------------------|-----------------------|---------|
|----------------------------|-----------------------|---------|





Play Pre-Chorus Again





Repeat Chorus - Lyrics:

"Hey Mr. Golden Deal, tell me how does she feel?
Do you hold her in the night, do you tell her everything's gonna be alright
Hey Mr. Golden Deal, I know how you feel.
Oh, I know, I know, I know, I know etc."



Ending:

Gtr. 1:

|-0---0-0----0------------|-----------------|
|-0---0-0--0-0------------|-----------------|
|-1-----1--1---1----1-----|-1---------------|
|-2-----2------0h2--0--0--|-0---------------|
|-3-----3------3----3--0--|-2---------------|
|-------------------------|-0---------------|
|
|
|-0--------0--------------|-----------------|
|-0--------0--------------|-----------------|
|-1-----1-----1-----1--0--|-1---------------|
|-2-----2-----0h2---0--0--|-0---------------|
|-3-----3-----3-----3--0--|-2---------------|
|-------------------------|-----------------|
"Mr. Golden Deal                How does she feel?"
======================================================================

Tonic - 'Bigot Sunshine'
Album: 'Lemon Parade'
tuning: standard, for 2 guitars
tabbed by jjhand

Enjoy and please rate my tabs so others will check them out too!

Intro- Part 1 - Guitar 1, strummed fast with alternating G string note
e|-10TP----------------------|
B|-10TP----------------------|
G|-12---11---12---11---12-11-|
D|-12TP----------------------|
A|---------------------------| play 2x
E|---------------------------|

Intro Part 2
e|------------------------|----------------3------|
B|-2-2----2-2-2---x-x-x-x-|-2-2----2-2-2---3------|
G|-0-2----2-0-2---x-x-x-x-|-0-2----2-0-2---0------|
D|-0-2----2-0-2---x-x-x-x-|-0-2----2-0-2----------|
A|-0-0----0-0-0---x-x-x-x-|-0-0----0-0-0----------| finish Intro with 
E|------------------------|-----------------------| part 1 2x again


Verse 1- Lead only, w/ wah
e|--------------------|------------------|-----------------------|-----------------|
B|-2-3-2--------------|---------5~-------|---------------------3-|-3--2------------|
G|-2-2-2-x-x-x-x-x-x--|-2~---------------|-x-x-x-x-x-x-x-x-x-x---|-----------------|
D|-2-2-2--------------|------------------|-----------------------|-----------------|
A|--------------------|------------------|-----------------------|-----------------|
E|--------------------|------------------|-----------------------|-----------------|

  keep plucking muted notes (x's) to beat
e|--------------------|-------------------|------------|---------------|
B|--------------------|-3--2--------------|------------|---------------|
G|-x-x-x-x-etc--------|-------2--0--------|-x-x-x-x--0-|-2~------------|
D|--------------------|-------------------|------------|---------------|
A|--------------------|-------------------|------------|---------------|
E|--------------------|-------------------|------------|---------------|



PreChorus
e|------------------------|------------------------|
B|-2-2----2-2-2---x-x-x-x-|-2-2----2-2-2---x-x-x-x-|
G|-0-2----2-0-2---x-x-x-x-|-0-2----2-0-2---x-x-x-x-|
D|-0-2----2-0-2---x-x-x-x-|-0-2----2-0-2---x-x-x-x-|
A|-0-0----0-0-0---x-x-x-x-|-0-0----0-0-0---x-x-x-x-|
E|------------------------|------------------------|

e|------------------------|-3-3-3-3-3-3-3-3-3-3-3-3-3-3-3-3-|
B|-2-2----2-2-2---x-x-x-x-|-3-3-3-3-3-3-3-3-3-3-3-3-3-3-3-3-|
G|-0-2----2-0-2---x-x-x-x-|-0-0-0-0-0-0-0-0-0-0-0-0-0-0-0-0-|
D|-0-2----2-0-2---x-x-x-x-|---------------------------------|
A|-0-0----0-0-0---x-x-x-x-|---------------------------------| 
E|------------------------|---------------------------------| 



  Chorus Rhythm, play 4x
e|---------------------------|---------------------------------|
B|-1---1-1-1---1-1-1-1-1-1-1-|-2---2-2-2---2-2-2-2-2-2-2---2-2-|
G|-0---0-0-0---0-0-0-0-0-0-0-|-2---2-2-2---2-2-2-2-2-2-2---2-2-|
D|-2---2-2-2---2-2-2-2-2-2-2-|-2---2-2-2---2-2-2-2-2-2-2---2-2-|
A|-3---3-3-3---3-3-3-3-3-3-3-|-0---0-0-0---0-0-0-0-0-0-0---0-0-|
E|---------------------------|---------------------------------|
 |
 |Chorus Lead, play 2x 
e|-----------------|-----------------|--------------|---------------|
B|-----------------|-----------------|--------------|---------------|
G|-4---------9--7--|-6---------------|---------9--7-|-6------(6b7)--|
D|-----------------|--------7--------|-5------------|---------------|
A|-2---------7--5--|-4---------------|---------7--5-|-4------(4b5)--|
E|-----------------|--------5--------|-3------------|---------------|
   Notes in () are on second time through chorus Lead part


Play Intro Part 1

Play Prechorus 2x

Play Chorus again, without bends


Chorus 2 ending
e|----------------|---------------------|
B|----------------|---------------------|
G|----------------|-0-------------------|
D|-5--------------|-0-------------------|
A|-3--------------|-2-------------------|
E|-3--------------|-3-------------------|
 "You can never act the way that you did back then"



Solo, w/ wah
e|-------7----------|-------------------------------|-------7--------|
B|-----7__----------|-------------------------------|-----7__--------|
G|-9TP____-------7--|-7\6---x-x-x-x-x-x-x-x-x-x-x-x-|-9TP____---7\6--|
D|------------------|-------x-x-x-x-x-x-x-x-x-x-x-x-|----------------|
A|-7TP____-------5--|-5\4---x-x-x-x-x-x-x-x-x-x-x-x-|-7TP____---5\4--|
E|------------------|-------------------------------|----------------|

e|--------------------|------------------------------|
B|--------------------|------------------------------|
G|-7TP\6--------------|------------------------5h7p5-|
D|----------5---------|-5h7-x-x-7--x-x-5h7-x-x-------|
A|-5TP\4--------------|------------------------------|
E|----------3---------|------------------------------|

e|--------------------------------------|-------------------------------5-|
B|--------------------------------------|-----------------------------5---|
G|-(5~~)---------5-----------5----7-5~~-|---------5-----------5---7b9-----|
D|-------x-x-5h7---7-x-x-5h7---7--------|-x-x-5h7---7-x-x-5h7---7---------|
A|--------------------------------------|---------------------------------|
E|--------------------------------------|---------------------------------|

e|------5-5------5-5---------------|
B|-8b10-----8b10-----8b10~---------|
G|---------------------------------|
D|---------------------------------|
A|---------------------------------|
E|---------------------------------|


Play Chorus with second Chorus ending

Play Intro Part 2

Play Intro Part 1

Ending is similar to prechorus part with muted strums
====================================================================

Capo III (All chords and notes relative to capo position-play as if

everything was in the open position)

Main Riff (Verse-acoustic & electric guitar simile)

C Dadd4 C ^ ^ ^

----0-/---0--0-0---0--0-/-0--0--0-0----0-x-0--0--0-x-0--0-0----0-x-0--0--0-0-|
----1-/---3--3-3---3--3-/-1--1--1-1----1-x-1--1--1-x-1--1-1----1-x-1--1--1-1-|
----0-/---0--0-0---0--0-/-0--0--0-0----0-x-0--0--0-x-0--0-0----0-x-0--0--0-0-|
----2-/---4--4-4---4--4-/-2--2--2-2----2-x-2--2--2-x-2--2-2----2-x-2--2--2-2-|
----3-/---5--5-5---5--5-/-3--3--3-3----3-x-3--3--3-x-3--3-3----3-x-3--3--3-3-|
-----------------------------------------------------------------------------|

Lead guitar riff during 1st verse(play twice)

----3------2-----------3----2----------------|e-stg
------3------3---1-------3----3---1----------|b-stg

Lead guitar riff during 2nd verse(w/variations)

--------------------------------------------|
-----------3----------1----------0----------|
--------------0----------0-----------0------|
-------4---------4----------2------------2--|
----5---------------------------------------|
--------------------------------------------|

Chorus Riff

G ^ C ^ ^

---3---3-3---3-3-x--0--0--0-x--0--0-0--0-x--0--0--0-|
---3---3-3---3-3-x--1--1--1-x--1--1-1--1-x--1--1--1-|
---0---0-0---0-0-x--0--0--0-x--0--0-0--0-x--0--0--0-|
---0---0-0---0-0-x--2--2--2-x--2--2-2--2-x--2--2--2-|
---2---2-2---2-2-x--3--3--3-x--3--3-3--3-x--3--3--3-|
---3---3-3---3-3-x----------------------------------|

Interlude(Gtr. 1)

-------------7----------7----------------------0-----|e-stg
---------5----------3-----------------------------3--|b-stg
-----7----------5------------------------------------|g-stg

Interlude(Gtr. 2)

-----------------------------------------------------|This part is primarily
-----------------------------------------------------|played as a lower octave
-----------4--------------4--------------------------|of the 1st guitar, but
-------2---------------0---------2-0-0-0^2---0-------|there are some small
---0----------------3--------------------------------|variations not tabbed.
-----------------------------------------------------|

Bridge v is played 3 x

-----------------------0------/---0--0--0-0--0--0--0-0----0---0-0--0--0-0--|
----/3---0--0^1--------1------/---3--3--3-3--3--3--3-3----1---1-1--1--1-1--|
-------------------0---0------/---0--0--0-0--0--0--0-0----0---0-0--0--0-0--|
-----------------------2------/---4--4--4-4--4--4--4-4----2---2-2--2--2-2--|
-----------------------3------/---5--5--5-5--5--5--5-5----3---3-3--3--3-3--|
---------------------------------------------------------------------------|

-0--0-/-0--0--0-0---0--0--0-0----0--0--0--0----|Go back to chorus, then main
-1--1-/-3--3--3-3---3--3--3-3----1--1--1--1----|verse riff, end on C and fade
-0--0-/-0--0--0-0---0--0--0-0----0--0--0--0----|out (just listen for the
-2--2-/-4--4--4-4---4--4--4-4----2--2--2--2----|changes)
-3--3-/-5--5--5-5---5--5--5-5----3--3--3--3----|
===================================================================

Tonic - "My Old Man"
From "Lemon Parade" Album
Standard, Capo 1st fret for Acoustic and 2 Electric Guitar parts
tabbed by jjhand

Very soft smooth song by Emerson Hart, let strings ring throughout. Please Rate or Comment. 


Intro - Rhythm Acoustic
    Db         Gb                Db_maj7                  
 f|----------------------------|--------------0-----------|-------------------------|
 C|----------------------------|------0---0-----0---0-----|----0------------0---0---|
Ab|-------9-----------2-2---0--|----------0-------0-------|-------------------2---0-|
Eb|----------------------------|--------2-2-------2-------|-------------------------|
Bb|----10-----------3-----3----|-3------------------------|-----------0---3---------|
 F|-8-------8\-1---------------|-3----------------------3/|/8------8\-1-------------|

  |-----------------------------|
  |------0---------0-----0------|
  |------------0-----0-----0----|
  |-2----------2-------2--------|
  |-3-------3-------------------|
  |-3------------------------3/-|



Verse - Play Similarly 8x, some small changes occur

 f|---------------------------|------------0-------------|
 C|-------0----------0---0----|--------0-----0----0------|
Ab|--------------------2---0--|--------0--------0---0----|
Eb|------------------------0--|--------2-----------------|
Bb|-------------(0)--------0--|-3------------------------|
 F|-/8------8\---1------------|-3----3----------------3/-|
     (0) note is not always played

Lyrics:  

"Me and my old man
Don't see eye to eye
We take our walks outside
Underneath the birch trees
He said I think it's gonna freeze this year
I said I gotta get away from here
Me and my old man
Me and my old man"




Chorus 1 - Acoustic, with Distorted Electric playing similar strums
     Ab_m                                                Db_add2
 f|--3----3---3-3-3-3-3-----3-3-|-3---3-3---3-3-3-3-3-------|-----------------|
 C|--3----3---3-3-3-3-3-----3-3-|-3---3-3---3-3-3-3-3----3--|-----3--3--3--3--|
Ab|--3----3---3-3-3-3-3-----3-3-|-3---3-3---3-3-3-3-3----5--|-----5--5--5--5--|
Eb|--5----5---5-5-5-5-5-----5-5-|-5---5-5---5-5-5-5-5----5--|-----5--5--5--5--|
Bb|--5----5---5-5-5-5-5-----5-5-|-5---5-5---5-5-5-5-5----3--|-----3--3--3--3--|
 F|--3----3---3-3-3-3-3-----3-3-|-3---3-3---3-3-3-3-3-------|-----------------|
   "Should have been enough to know That you'd let us all down"



 f|--3----3---3-3-3-3-3-----3-3-|-3---3-3---3-3-3-3-3-------|----------------|
 C|--3----3---3-3-3-3-3-----3-3-|-3---3-3---3-3-3-3-3----3--|-(3)------------|
Ab|--3----3---3-3-3-3-3-----3-3-|-3---3-3---3-3-3-3-3----5--|-(5)------------|
Eb|--5----5---5-5-5-5-5-----5-5-|-5---5-5---5-5-5-5-5----5--|-(5)------------|
Bb|--5----5---5-5-5-5-5-----5-5-|-5---5-5---5-5-5-5-5----3--|-(3)------------|
 F|--3----3---3-3-3-3-3-----3-3-|-3---3-3---3-3-3-3-3-------|----------------|
   "Could have been enough to try Without making a sound"


Chorus 1 Ending - Acoustic (Electric 1 plays chords)
|--3----3-----3-------------|------------3------3--3-----|-3----3-----3--------|-
|-v3----3---3---3----3--3---|---3--3---3----3------------|-3----3---3---3---3--|-
|--3----3---------3-----5---|------5----------5------3-3-|-3----3---------3-5--|-
|-----------------------5---|------5---------------------|------------------5--|-
|---------------------------|----------------------------|------------------3--|-
|---------------------------|----------------------------|------------------#--|-
| 'v' is arpeggio upward.  Hold last chord noted by #
|
| Overdub Electric 2 (w/ slide) - Slides are done slowly
|--------------------------|-----------------------------|----------------------|
|--------------------------|-----------------------------|----------------------|
|--------------2/____/5----|-(5)-------------------------|-------------2/___/5--|
|--------------2/____/5----|-(5)-------------------------|-------------2/___/5--|
|--------------------------|-----------------------------|----------------------|
|--------------------------|-----------------------------|----------------------|

"It's all part of the plan my dear ..."




Play Verse again with Electric adding this:
 f|-----------|--------------|----------|---0--------|-----------|--------------|
 C|-----------|---------0----|----------|-----0------|-----------|--0---------0-|
Ab|---rest----|-------0------|--rest----|-------0*---|--rest-----|--0-------0---|
Eb|-----------|-----2--------|----------|------------|-----------|-^2-----2-----|
Bb|-----------|--------------|----------|------------|-----------|--3-----------|
 F|-----------|--------------|----------|------------|-----------|--------------|
   * Note is heard faintly, ^ means arpeggiate chord down

 rest one bar, then play:
 |---------------|-------------|-----------------|----------|---------------|
 |----0----------|-------------|-----------0-----|--------0-|-----------0---|
 |--0---0--------|--rest-------|-------0-------0-|--------0-|-------0-----0-|
 |-^2-----2------|-------------|-----2-----------|-------^2-|---------2-----|
 |--3------------|-------------|-3---------------|--------3-|---------------|
 |---------------|-------------|-----------------|----------|---------------|
 
 |------------|------------|-----------|----------------|
 |------------|-----0------|-----------|------0---------|
 |--rest------|--0----0----|--rest-----|----0-------0---|
 |------------|-^2------2--|-----------|--------2-------|
 |------------|--3---------|-----------|----------------|
 |------------|------------|-----------|----------------|

Second Verse Lyrics:
"So we walked along the mending walls
Laid beneath the tortured talls
And we sang a song of newfound cheer
Laughed at the passing years
Yeah we talked about things to come
Talked about the battles won
He said I think it's gonna freeze this year
I said I gotta get away from here"



Chorus 2

 f|--3----3---3-3-3-3-3-----3-3-|-3---3-3---3-3-3-3-3-------|-----------------|
 C|--3----3---3-3-3-3-3-----3-3-|-3---3-3---3-3-3-3-3----3--|-----3--3--3--3--|
Ab|--3----3---3-3-3-3-3-----3-3-|-3---3-3---3-3-3-3-3----5--|-----5--5--5--5--|
Eb|--5----5---5-5-5-5-5-----5-5-|-5---5-5---5-5-5-5-5----5--|-----5--5--5--5--|
Bb|--5----5---5-5-5-5-5-----5-5-|-5---5-5---5-5-5-5-5----3--|-----3--3--3--3--|
 F|--3----3---3-3-3-3-3-----3-3-|-3---3-3---3-3-3-3-3-------|-----------------|
   "Should have been enough to know That you'd let us all down"



 f|--3----3---3-3-3-3-3-----3-3-|-3---3-3---3-3-3-3-3---v5--|
 C|--3----3---3-3-3-3-3-----3-3-|-3---3-3---3-3-3-3-3----5--|
Ab|--3----3---3-3-3-3-3-----3-3-|-3---3-3---3-3-3-3-3----6--|
Eb|--5----5---5-5-5-5-5-----5-5-|-5---5-5---5-5-5-5-5----5--|
Bb|--5----5---5-5-5-5-5-----5-5-|-5---5-5---5-5-5-5-5----7--|
 F|--3----3---3-3-3-3-3-----3-3-|-3---3-3---3-3-3-3-3----5--|
   "Could have been enough to try, Could have been enough to try"


     Bb7                       Bb7sus4
 f|-(5)----5---5-5-5-5-5-5-----5-|---5-5-5---5-5-5-5--------------|
 C|-(5)----5---5-5-5-5-5-5-----5-|---5-5-5---5-5-5-5---------5----|
Ab|-(6)----6---6-6-6-6-6-6-----7-|---7-7-7---7-7-7-7-6-7-6------6-|
Eb|-(5)----5---5-5-5-5-5-5-----5-|---5-5-5---5-5-5-5--------------|
Bb|-(7)----7---7-7-7-7-7-7-----7-|---7-7-7---7-7-7-7--------------|
 F|-(5)----5---5-5-5-5-5-5-----5-|---5-5-5---5-5-5-5--------------|
  |
  | Distorted Electric (w/ heavy Chorus)
 f|------------------------------|--------------------------------|
 C|------------5-----------------|---------5----------------------|
Ab|----------------6-----------7-|-------------------6b7r6--------|
Eb|--------5---------------------|-----5---------------------5----|
Bb|------------------------------|--------------------------------|
 F|------------------------------|--------------------------------|
      "I'm such a fool ..."


cont
    Acoustic
 f|-5----5---5-5-5-5-5-5-----5-|---5-5-5---5-5-5-5--------------|
 C|-5----5---5-5-5-5-5-5-----5-|---5-5-5---5-5-5-5---------5----|
Ab|-6----6---6-6-6-6-6-6-----7-|---7-7-7---7-7-7-7-6-7-6------6-|
Eb|-5----5---5-5-5-5-5-5-----5-|---5-5-5---5-5-5-5--------------|
Bb|-7----7---7-7-7-7-7-7-----7-|---7-7-7---7-7-7-7--------------|
 F|-5----5---5-5-5-5-5-5-----5-|---5-5-5---5-5-5-5--------------|
  |
  | Electric 
 f|------------------------------|--------------------------------|
 C|------------5-----------------|--------------5-----------------|
Ab|----------------6-----------7-|-------------------6b7r6--------|
Eb|--------5---------------------|---------5-----------------5----|
Bb|--7---------------------------|---7----------------------------|
 F|------------------------------|--------------------------------|
     "Spent my life waiting for you ..."


    Acoustic
 f|-5----5---5-5-5-5-5-5-----5-|---5-5-5---5-5-5-5---5-5---5----|
 C|-5----5---5-5-5-5-5-5-----5-|---5-5-5---5-5-5-5---5-5---5----|
Ab|-6----6---6-6-6-6-6-6-----7-|---7-7-7---7-7-7-7---7-7---7----|
Eb|-5----5---5-5-5-5-5-5-----5-|---5-5-5---5-5-5-5---5-5---5----|
Bb|-7----7---7-7-7-7-7-7-----7-|---7-7-7---7-7-7-7---7-7---7----|
 F|-5----5---5-5-5-5-5-5-----5-|---5-5-5---5-5-5-5---5-5---5----|
  |
  | Electric 
 f|----------------------------|--------------------------------|
 C|------------5---------------|----5---------------------5-----|
Ab|----------------6---------7-|-----------7-------7b8r7--------|
Eb|--------5-------------------|--------5-----------------------|
Bb|--7-------------------------|--------------------------------|
 F|----------------------------|--------------------------------|
    "Through these trees I see            With my father's eyes "


  End Chorus 2:
          Eb                      Ebmaj7
 f|----------------------------|--2-------------------------|
 C|-------3-3----3-3-3-3-3-3---|--2-------------------------|
Ab|-------2-2----2-2-2-2-2-2---|--2-------------------------|
Eb|-------0-0----0-0-0-0-0-0---|--0-------------------------|
Bb|-(0)------------------------|--0-------------------------|
 F|----------------------------|----------------------------|
    () is Electric                * both guitars
    
   "I realize the weight"




Bridge - Second Acoustic  play 3x

    Ab         Gb         Db
 f|-------7\5--------5\-|-------0---------------|
 C|----8----------6-----|----1------------5b6r5-|
Ab|-7----------5--------|-0---------------------|
Eb|---------------------|-----------------------|
Bb|---------------------|-----------------------|
 F|---------------------|-----------------------|
Distorted Electric (Chorus on) plays chords indicated



During Bridge, Rhythm Acoustic plays
 f|--------------------------|-----------------0-------0-----------|
 C|-----------------------0--|-------------------1-------1---1---0-|
Ab|-------0--0---------0-----|-0---------0--0--------0-------------|
Eb|--------------------------|-2---------2---------2-----------2---|
Bb|--------------------------|-3---------3-------------------------|
 F|-3------------1-----------|-------------------------------------|

 f|--------------------------|-----------------0-----0-----0------|
 C|-------0---------------0--|-------------------1-----1-------0--|
Ab|----------0---------0-----|-0---------0--0------0-----0--------|
Eb|--------------------------|-2---------2------------------------|
Bb|--------------------------|-3---------3------------------------|
 F|-3------------1-----------|------------------------------------|

 f|----------------------0----|------------------------------------|
 C|-------0--------0---0----0-|-0h1--1-1-1--1-----1--1--1--1---0-0-|
Ab|----------0-------0--------|-0----0-0-0--0-----0--0--0--0---0-0-|
Eb|---------------------------|-2----2-2-2--2-----2--2--2--2---0-0-|
Bb|---------------------------|-3----3-3-3--3-----3--3--3--3---0-0-|
 F|-3------------1------------|------------------------------------|



Play Chorus 1 again, with Chorus ending playing 2x


Reprise of Bridge (4:49)- 2 Acoustics overlapping:
 f|-------------------------|------0--------0-----0----0----|
 C|-------------------0-----|-0h1------1------1-1---1--1-0--|
Ab|-------0--0----------0-0-|-0--------0--------0-----------|
Eb|----0--------------------|-0h2----0-2--------------------|
Bb|-----------------2-------|-------------------------------|
 F|-3-----------1-----------|-------------------------------|

 f|-------------------0-----|------0--------0-----0----0------|
 C|-------------------0-0---|-0h1------1------1-1---1----1-0--|
Ab|-------0--0------------0-|-0--------0--------0-----0----0--|
Eb|----0--------------------|-0h2----0-2----------------------|
Bb|-----------------2-------|---------------------------------|
 F|-3-----------1-----------|---------------------------------|


Continue playing Bridge Chords on Rhythm Acoustic during Solo

Guitar Solo (Distorted Electric at 5:03):
 f|--------------------|--------------------------------|
 C|--------------------|--------------------------------|
Ab|--------------------|--------------------------------|
Eb|--------------------|--------------------------------|
Bb|--------------------|--------------------------------|
 F|-0-2.6NH----5\--0---|-3---3-5b6r5--3--1----3-5b6r5-3-|

|--------------------------|--------------------------7-8-----|
|--------------------------|---8--------8~--8---6---5-----5-8-|
|------------------4----/7-|-7----10b12-------0---0-----------|
|-5~--5-7-5---5-5~---5-----|-5----------------0---0-----------|
|-----------7--------------|----------------------------------|
|--------------------------|----------------------------------|

|-----------------------------|
|-8~--8-8\--------------------|
|-----------------------------|
|-----------------------------|
|-----------------------------|
|-----------3-6-3-0-5b6r5-3---|




At 5:20, Acoustic 2 returns for Outro:

   Acoustic 2
 f|-7-------------------|--------------7b8r7~--|-7-----------------|
 C|---8---------------8-|----------------------|---8-------------8-|
Ab|-----7---------------|----------------------|-----7-------------|
Eb|---------------------|----------------------|-------------------|
Bb|---------------------|----------------------|-------------------|
 F|---------------------|----------------------|-------------------|
  |
  |Dist. Electric
 f|---------------------|----------------------|-----------------------------|
 C|---------------------|----------------------|-----------------------------|
Ab|--rest---------------|----------------------|-----------------------------|
Eb|---------------------|----5---5-5~---5-5\---|---------------------------5-|
Bb|---------------------|------7---------------|-----------------------------|
 F|---------------------|----------------------|-3--3-5b6r5-3-1--0-5b6r5-3---|

   Acoustic 2 
 f|-7---------------7b8r7~-|-----------------------------|---7---------------|
 C|---8--------------------|------------------------6/8--|-----8--------8----|
Ab|-----7------------------|-----------------------------|-------7-----------|
Eb|------------------------|-----------------------------|-------------------|
Bb|------------------------|-----------------------------|-------------------|
 F|------------------------|-----------------------------|-------------------|
  |
  |Dist. Electric
 f|------------------------|-----------------------------|--------------------|
 C|------------------------|-----------------------------|--------------------|
Ab|------------------------|-----------------------------|--------------------|
Eb|-(5)-----------5-5~-x-x-|---------------------------5-|-(5)--5-----5-5~----|
Bb|--------5-5-/7------x-x-|-----------------------------|--------5/7---------|
 F|------------------------|-3--3-5b6r5-3-1--0-5b6r5-3---|------------------0-|

Continue with fadeout similarly

            
            
Suggest correction
Creating personal tab
Creating personal tab
You can edit any tab online and save it as your Personal.

You can edit, replace or remove any tab part or add personal notes – all changes will be seen only by you.

Personal tabs can be accessed anytime from any device, even offline.
Learn more »
Give kudos to tab author, rate the tab!
1 2 3 4 5
comments
print report bad tab
guest
You may want to rate the tab now too:
select rating
Wanna post a correction for this tab? Suggest correction