Oops, an error
Loading. Please wait.

Love A Diamond tab

by Tonic
461 views 3 this week
no commentswrite comment
1 2 3 4 5
1 last vote to show rating
add to favorites
×
Save as Personal and add changes to this tab that will be seen only by you. Learn more ›
×
You can save this tab as Personal to edit and correct it or add notes. All changes will be seen only by you. Learn more »
launch autoscroll
font size
0
reset
how to read this tab
guitar tuner
edit
Autoscroll
slow
fast
+/-
esc
set tempo
stop
About this tab version
Full tab of song including all riffs. Note Double Drop D tuning and capo is needed for this song. Was this info helpful? Yes No
Tonic - "Love a Diamond"
From "Sugar" Album
Tuning: Eb Bb Eb Ab C Eb
tabbed by jjhand


To get tuning, drop high and low E strings to D and capo 1st fret. Tab is
written with every note referring to the capo as 0, so try to remember that.
This is a fairly simple song to play, so have fun. Please rate or comment.


[Main Acoustic Riff]
 
Eb|-----7---0-7\--5-------5---0-5\---|---------0-----0-----------------|
C |----------------------------------|-----3-----3---------------------|
Ab|---------------------5------------|-----------------------0---------|
Eb|----------------------------------|---5-----------------4-----4-----|
Bb|---5---------------3--------------|-------------------5---------5---|
Eb|-0--------------------------------|-5---------------0---------------|
 
 
[Chorus]
 
 Acoustic
|---------0-------------0-----|---------0-------------0-----|
|-----0-----0-------0-----0---|-----0-----0-------0-----0---|
|-----------------------------|---0-------------0-----------|    play 4x
|---2-------------2-----------|-0-------------0-------------|
|-----------------------------|-----------------------------|
|-2-------------2-------------|-----------------------------|
|                                         ^ on 4th time, stop here
|Lead Electric
|-0---------------------------|-0---------------------------|
|-0---------------------------|-0---------------------------|
|-0---------------------------|-0---------------------------|
|-2---------------------------|-5---------------------------|
|-2---------------------------|-5---------------------------|
|-2---------------------------|-5---------------------------|
 
 
[Pre-Verse Lead] 
 
|-----4---5---7------|-------------------|---7---5------------|
|--------------------|-------------------|-----------5----7b8-|
|-7------------------|---7---------------|-7------------------|
|--------------------|-------9~~--7----9-|--------------------|
|--------------------|-------------------|--------------------|
|--------------------|-------------------|--------------------|
 
|-----12--14--12h14-14/16---|
|-r7------------------------| bend is held between 3rd and 4th bars
|---------------------------|
|---------------------------|
|---------------------------|
|---------------------------|
 
 
Play Main Riff again (1:29), with:

[Lead Riff 1]
 
|----------|------------2---|-------------|-----------------|----------------|
|----------|--------3-------|-3-----------|-----------------|----------------|
|----------|------2---------|-------------|---------0---2---|----------------|
|----------|----------------|-------------|-------4---------|-4--------------|
|-rest-----|----------------|-----rest----|-----------------|-----rest-------|
|----------|----------------|-------------|-----------------|----------------|
 
|------4p0----5-|-----2/4------0-----|------------4-----|
|---------------|-5\3----------------|--------------3---|
|---------------|--------------------|------------------|
|---------------|--------------------|------------------|
|---------------|--------------------|------------------|
|---------------|--------------------|------------------|
 
 
Play Chorus again
 
 
After Chorus, play Pre-verse Part again. Play Main Riff again with Lead Riff 1
 
 
At 3:10, Lead changes to
|--------5-----|---------0-------|
|------3-------|-----------------|
|------------0-|-2---------------|
|--------------|-----4-----------|
|--------------|-----------------|
|--------------|-----------------|
 
Continue playing main riff and fade out.
 
 
Key:
| /  slide up
| \  slide down
| h  hammer-on
| p  pull-off
| ~  vibrato

            
            
Suggest correction
Creating personal tab
Creating personal tab
You can edit any tab online and save it as your Personal.

You can edit, replace or remove any tab part or add personal notes – all changes will be seen only by you.

Personal tabs can be accessed anytime from any device, even offline.
Learn more »
Give kudos to tab author, rate the tab!
1 2 3 4 5
comments
print report bad tab
guest
You may want to rate the tab now too:
select rating
Wanna post a correction for this tab? Suggest correction