Oops, an error
Loading. Please wait.

Fake It bass

1,558 views 1 this week
2 commentsread comments
1 2 3 4 5
2 more votes to show rating
add to favorites
×
Save as Personal and add changes to this tab that will be seen only by you. Learn more ›
×
You can save this tab as Personal to edit and correct it or add notes. All changes will be seen only by you. Learn more »
launch autoscroll
font size
0
reset
guitar tuner
edit
Autoscroll
slow
fast
+/-
esc
set tempo
stop
Author
Difficulty
Artist: Tonight Alive
Bassist: Cameron Adler
Song: Fake It
Album: What Are You So Scared Of?
Tuning: Standard

*Note: In the song, 11s (elevens) are being played. Not 1s (ones).
Intro
G |------------------------------------------|
D |------------------------------------------|
A |-44------0-----------44------0---------4--|
E |-----000---44-2-4444----000---44-2-444----|
Verse
Bass comes in at 'But what for just to please you?' These are elevens, not ones, coming up.
G |----------------------------------------------------------------|
D |----------------------------------------------------------------|
A |---------------------999999994444444444444444-----------------9-|
E |00000000-000-11111111------------------------0000000011111111---|
Chorus-
D |----------------------------------------|
G |----------------------------------------|
A |-44444444-------------00000000----------|x2
E |------------00000000-----------22224444-|

Verse 2 (still elevens). Guitar plays at first, than bass comes in at 'Be on your side'
D |----------------------------------------------------------------|
G |----------------------------------------------------------------|
A |-------------9999/4444444444444444--------9999-4----------------|
E |-000000001111---------------------00000000----------------------|
Chorus 2
D |--------------------------------------------------|
G |--------------------------------------------------|
A |-44444444---------00000000------------------------|x2
E |----------00000000--------22224444----------------|
Bridge
D  |----------------------------|
G  |----------------------------|
A  |-444444-44-4----------------| x2
E  |----------------000000-2-0--|

D  |-----------------------------------------------|
G  |-----------------------------------------------|
A  |-4-------------------------00000000------------| x 2
E  |----------2222222244444444----------44444444---|

BREAK

Chorus 3
Bass comes in right after 'Trace it back to where we started cause'
D |---------------------------|
G |---------------------------|
A |-00000000------------------|
E |-------------22224444------|

D |-------------------------------------------------------|
G |-------------------------------------------------------|
A |-44444444----------00000000---------00000000-----------|
E |----------00000000----------22224444----------22224444-|
Outro
Guitar plays guitar intro. Before it finishes, play this.
D |------------------|
G |------------------|
A |------4-----------|
E |-22-4-------------|

            
            
Suggest correction
Creating personal tab
Creating personal tab
You can edit any tab online and save it as your Personal.

You can edit, replace or remove any tab part or add personal notes – all changes will be seen only by you.

Personal tabs can be accessed anytime from any device, even offline.
Learn more »
Give kudos to tab author, rate the tab!
1 2 3 4 5
comments
print report bad tab
2 comments total.
+1 reply
theadampettigre 10 Aug 21, 2015 01:21 AM, edited at 05:23 am

I've seen an interview with Whakaio saying they did the whole of WAYSSO? in drop C# so i would guess that this song is also in drop C# rather than standard tuning

+1 reply
PartyPoison182 183 Aug 23, 2015 03:27 PM

Yeah, you're right. If I could I would delete this tab entirely.

guest
You may want to rate the tab now too:
select rating
Wanna post a correction for this tab? Suggest correction