Oops, an error
Loading. Please wait.

Little Lion Man tab

version 1
version 1

Whole song

Interactive

46,490 views 15 this week
3 commentsread comments
1 2 3 4 5
x 21
add to favorites
×
Save as Personal and add changes to this tab that will be seen only by you. Learn more ›
×
You can save this tab as Personal to edit and correct it or add notes. All changes will be seen only by you. Learn more »
launch autoscroll
font size
0
reset
how to read this tab
guitar tuner
edit
Autoscroll
slow
fast
+/-
esc
set tempo
stop
Author
Difficulty
Tuning: Standard

[Verse 1] 
(Rhythm + Lead):
e|-----------------------|
B|-----------------------|
G|-8------6--------------|
D|-8 x8---6 x8---4-------| (x2)
A|-6------4------4 x16---|
E|---------------2-------|
   *      *      *

e|-----------------------|
B|-----------------------|
G|-6 -----4 -------------|
D|-6 x8---4 x8---4 ------| (x2)
A|-4 -----2 -----4 x16---|
E|---------------2 ------|
   *      *      *

[Chorus 1]
e|-6~----4~----2~----|------------------|
B|-7~----6~----2~----|------------------|
G|-8~----6~----3~----|-----444444444444-|
D|-8~----6~----4~----|(x3)-444444444444-|
A|-6~----4~----4~----|-----222222222222-|
E|-------------2~----|------------------|
                           ********

[Post-Chorus]
(Lead) (x2)
e|--------------------------------------------------|
B|-11-------11-------11----14-------14-------14-----| 
G|----11-11----11-11----11----11-11----11-11----11--|  
D|--------------------------------------------------|   
A|--------------------------------------------------|    
E|--------------------------------------------------|     
      *  *     *  *     *     *  *     *  *     *          
                                                            
e|-----------------------------------------------|           
B|-11-------11-------11----9-------9-------9-----|            
G|----11-11----11-11----11---11-11---11-11---11--|             
D|-----------------------------------------------|              
A|-----------------------------------------------|              
E|-----------------------------------------------|             
      *  *     *  *     *    *  *    *  *    *                
                                                             
e|-----------------------------------------------|        
B|-9-----9-----9---7-----6-----6-----------------|       
G|---6-6---6-6---6---6-6---6-6---6---------------|  (x2)  
D|-----------------------------------------------| 
A|-----------------------------------------------| 
E|-----------------------------------------------| 
     * *   * *   *   * *   * *   *

[Post-Chorus]
(Rhythm)
e|------------------------|
B|------------------------|
G|-8-------6--------------|
D|-8 x16---6 x16---4------|
A|-6-------4-------4 x32--|
E|-----------------2------|

[Verse 2]
(Rhythm)
e|------------------------|
B|------------------------|
G|-8~----6~---------------|
D|-8~----6~----2~----4~---| (x2)
A|-6~----4~----3~----4~---|
E|-------------1~----2~---|

e|------------------------|
B|------------------------|
G|-6-------4--------------|
D|-6 x16---4 x16---4------| (x2)
A|-4-------2-------4 x32--|
E|-----------------2------|

[Verse 2]
(Lead)
e|--------------------------|    --------|
B|--------------------------|    --------|
G|-8~----6~----10~----11~---|    -11~----|
D|-x-----x-----x------x-----|(x2)-x----\-|
A|-6~----4~----8-~----9-~---|    -9-~--\-|
E|--------------------------|    ------\-|

e|----------------------9-----------------------|
B|------6h7p6-------6h7--------6h7p6-------9-7--|
G|-6666-------6-666-------6666-------6-666------| (x3)
D|----------------------------------------------|
A|----------------------------------------------|
E|----------------------------------------------|

e|----------------------9-----------------------|
B|------6h7p6-------6h7-------------------------|
G|-6666-------6-666-------11-11-11-11-----------|
D|------------------------x--x--x--x------------|
A|------------------------9--9--9--9------------|
E|----------------------------------------------|

2nd Chorus (Rhythm):
e|---------------------|    --------------------|
B|---------------------|    --------------------| 
G|-8888-6666-----------|    -66666666-55555555--|  
D|-8888-6666-44444444--|(x3)-66666666-66666666--| (x2)
A|-6666-4444-44444444--|    -44444444-33333333--| 
E|-----------22222222--|    --------------------|

2nd Chorus (Lead):
e|------------------------------------|    --------------------|
B|------------------------------------|    --------------------| 
G|-8888-6666-11-11-11-11-11-11-11-11--|    -6666666666666666---|   (x2)
D|-xxxx-xxxx-x--x--x--x--x--x--x--x---|(x3)-xxxxxxxxxxxxxxxx---|  
A|-6666-4444-9--9--9--9--9--9--9--9---|    -4444444444444444---| 
E|------------------------------------|    --------------------|

Sadly I have no clue as to what the bridge would be because I'm bad with that
kind of stuff but the vocalizing part would be this.

[Vocalizing Part]
e|------------------------------|
B|------------------------------|
G|-6------8------4------11------|
D|-6 x8---8 x4---4 x4---11 x16--|
A|-4------6------2------9-------|
E|------------------------------|

[Last Chorus]
(Rhythm)
e|------------------|    --------------------|
B|------------------|    --------------------| 
G|-8888-6666--------|    -66666666-55555555--|  
D|-8888-6666-4x4x4--|(x3)-66666666-66666666--|  
A|-6666-4444-4x4x4--|    -44444444-33333333--| 
E|-----------2x2x2--|    --------------------|

e|---------------------|    --------------------|
B|---------------------|    --------------------| 
G|-8888-6666-----------|    -66666666-55555555--|  
D|-8888-6666-44444444--|(x3)-66666666-66666666--|  
A|-6666-4444-44444444--|    -44444444-33333333--| 
E|-----------22222222--|    --------------------|

[Chorus 2]
(Lead)
e|------------------------------------|    --------------------|
B|------------------------------------|    --------------------| 
G|-8888-6666-11-11-11-11-11-11-11-11--|    -6666666666666666---|  
D|-xxxx-xxxx-x--x--x--x--x--x--x--x---|(x3)-xxxxxxxxxxxxxxxx---|  
A|-6666-4444-9--9--9--9--9--9--9--9---|    -4444444444444444---| 
E|------------------------------------|    --------------------|


************************************

| ~  Vibrato
| x  Dead note
| \  Slide down
| h  Hammer-on
| p  Pull-off

************************************

            
            
Suggest correction
Creating personal tab
Creating personal tab
You can edit any tab online and save it as your Personal.

You can edit, replace or remove any tab part or add personal notes – all changes will be seen only by you.

Personal tabs can be accessed anytime from any device, even offline.
Learn more »
comments
print report bad tab
3 comments total.
0 reply
Carly_ish_scary 41 Jan 18, 2012 03:50 PM

Pre-chorus lead.

e|-----------------------------------------------|\
B|-9-----9-----7---6-----6-----6-----------------| \
G|---6-6---6-6---6---6-6---6-6---6---------------| \ x2
D|-----------------------------------------------| /
A|-----------------------------------------------| /
E|-----------------------------------------------|/
* * * * * * * * * *

0 reply
DomRusky 499 Mar 03, 2013 01:47 AM

apart from the correction the guy above made, solid tab man :) 5*

0 reply
captainperoxide 90 Jul 08, 2013 05:23 PM

The post chorus lead pattern is actually

e|-----------------------------------------------------|
B|-11-------11-------14--------14--------14-----14-----|
G|----11-11----11-11----11-11-----11-11-----11------11-|
D|-----------------------------------------------------|
A|-----------------------------------------------------|
E|-----------------------------------------------------|

etc.

guest
You may want to rate the tab now too:
select rating
Wanna post a correction for this tab? Suggest correction