Oops, an error
Loading. Please wait.

Lonely Girl tab

version 1
version 1

Whole song

Interactive

27,475 views 54 this week
4 commentsread comments
1 2 3 4 5
x 13
add to favorites
×
Save as Personal and add changes to this tab that will be seen only by you. Learn more ›
×
You can save this tab as Personal to edit and correct it or add notes. All changes will be seen only by you. Learn more »
launch autoscroll
font size
0
reset
how to read this tab
guitar tuner
edit
Autoscroll
slow
fast
+/-
esc
set tempo
stop
Tabbed by: Connor Smith
E-mail:connorbetts-1995@hotmail.co.uk

Tuning: Drop C

[Intro]
(Guitar 1)
D|---------------------------------------------------------------------------|
A|---------------------------------------------------------------------------|
F|-------------------------------------------------5-5-5-5-5-5-5-5-----------|
C|-3-3-3-3-3-3-3-3-0-0-0-0-0-0-0-0-7-7-7-7-7-7-7-7-5-5-5-5-5-5-5-5-----------|
G|-3-3-3-3-3-3-3-3-0-0-0-0-0-0-0-0-7-7-7-7-7-7-7-7-3-3-3-3-3-3-3-3-----------|
C|-3-3-3-3-3-3-3-3-0-0-0-0-0-0-0-0-7-7-7-7-7-7-7-7---------------------------|x2

[Intro]
(Guitar 2)
(lot of delay)
D|---------------------------------------------------------------------------|
A|------------------10------------------------------------13----13p12--------|
F|----9-----9-----9-------9----10-9--------9-----9-----9-----12------12------|
C|---------------------------------------------------------------------------|
G|-7-7--7-7-----7-----7-7--7-7---------7-7---7-7----7------------------------|
C|---------------------------------------------------------------------------|x2

[Verse] 
(Guitar 1)
D|---------------------------------------------------------------------------|
A|---------------------------------------------------------------------------|
F|---------------------------------------------------------------------------|
C|---------------------------------------------------------------------------|
G|---------------------------------2-3-3-3-3-3-3-3-5-------------------------|
C|-7-7-7-7-7-7-7-7-7-7-7-7-7-7-7-7-------------------5-5-5-5-5-5-5-----------|x4

[Verse Part 2]
(Guitar 1)
D|---------------------------------------------------------------------------|
A|---------------------------------------------------------------------------|
F|---------------------------------------------------------------------------|
C|-------5-5-5-5-5-------2-2-2-2-2-------------------------------------------|
G|---------------------------------------------------------------------------|
C|-7-7-7-----------7-7-7-----------5-5-5-5-5-5-5-5-5-5-5-5-5-5-5-5-----------|

[Guitar 2]
(A lot of Delay)
D|--------------------------------------------10-----------------------------|
A|-13p8h13p8---------13p8h13p8---------12p8h12---12p8h12-12p8h12-10-12p8h12--|
F|----------12121212----------12121212---------------------------------------|
C|---------------------------------------------------------------------------|
G|---------------------------------------------------------------------------|
C|---------------------------------------------------------------------------|x2

[Guitar 1]
[Chorus]
D|---------------------------------------------------------------------------|
A|---------------------------------------------------------------------------|
F|-------------------------------------------------5-5-5-5-5-5-5-5-----------|
C|-3-3-3-3-3-3-3-3-0-0-0-0-0-0-0-0-7-7-7-7-7-7-7-7-5-5-5-5-5-5-5-5-----------|
G|-3-3-3-3-3-3-3-3-0-0-0-0-0-0-0-0-7-7-7-7-7-7-7-7-3-3-3-3-3-3-3-3-----------|
C|-3-3-3-3-3-3-3-3-0-0-0-0-0-0-0-0-7-7-7-7-7-7-7-7---------------------------|x2

[Guitar 2]
D|---------------------------------------------------------------------------|
A|---------------------------------------------------------------------------|
F|--1414141414141414161616161616161617171717171717171919191919191919---------|
C|--x-x-x-x-x-x-x-x-x-x-x-x-x-x-x-x-x-x-x-x-x-x-x-x-x-x-x-x-x-x-x-x----------|
G|--1212121212121212141414141414141415151515151515151717171717171717---------|
C|---------------------------------------------------------------------------|

D|---------------------------------------------------------------------------|
A|----------------------------------2020202020202020-------------------------|
F|--14141414141414141616161616161616x-x-x-x-x-x-x-x-1919191919191919---------|
C|--x-x-x-x-x-x-x-x-x-x-x-x-x-x-x-x-1717171717171717x-x-x-x-x-x-x-x----------|
G|--12121212121212121414141414141414----------------1717171717171717---------|
C|---------------------------------------------------------------------------|

[Chorus part 2]
(Guitar 1)
D|----------------------------------------------------------------------------|
A|----------------------------------------------------------------------------|
F|---------------------------------------5-5-5-5-5-5-5-5----------------------|
C|-3-3------0-0--------5-7-7-7-7-7-7-7-7-5-5-5-5-5-5-5-5----------------------|
G|-3-3------0-0--------5-7-7-7-7-7-7-7-7-3-3-3-3-3-3-3-3----------------------|
C|-3-3------0-0--------3-5-5-5-5-5-5-5-5--------------------------------------|x2

[Guitar 2]
D|---------------------------------------------------------------------------|
A|---------------------------------------------------------------------------|
F|-----9-7------10-9-7-5-----------------------------------------------------|
C|-----x-x------x--x-x-x-----------------------------------------------------|
G|-----7-5------8--7-5-3-----------------------------------------------------|
C|---------------------------------------------------------------------------|

D|---------------------------------------------------------------------------|
A|---------------------------------------------------------------------------|
F|-----9-7------12~----------------------------------------------------------|
C|-----x-x------x------------------------------------------------------------|
G|-----7-5------10~----------------------------------------------------------|
C|---------------------------------------------------------------------------|

[Bridge]
(Guitar 1)
D|---------------------------------------------------------------------------|
A|---------------------------------------------------------------------------|
F|-------------------------------------------------5-5-5-5-5-5-5-5-----------|
C|-3-3-3-3-3-3-3-3-0-0-0-0-0-0-0-0-7-7-7-7-7-7-7-7-5-5-5-5-5-5-5-5-----------|
G|-3-3-3-3-3-3-3-3-0-0-0-0-0-0-0-0-7-7-7-7-7-7-7-7-3-3-3-3-3-3-3-3-----------|
C|-3-3-3-3-3-3-3-3-0-0-0-0-0-0-0-0-7-7-7-7-7-7-7-7---------------------------|

[Bridge]
(Guitar 2)
(lot of delay)
D|---------------------------------------------------------------------------|
A|------------------10------------------------------------13----13p12--------|
F|----9-----9-----9-------9----10-9--------9-----9-----9-----12------12------|
C|---------------------------------------------------------------------------|
G|-7-7--7-7-----7-----7-7--7-7---------7-7---7-7----7------------------------|
C|---------------------------------------------------------------------------|

[Verse 2]
(Guitar 1)
D|---------------------------------------------------------------------------|
A|---------------------------------------------------------------------------|
F|-------------------------------------5-------5-----------------------------|
C|-----7-------7-------7-------7-------5-------5-------5-------5-------------|
G|-----7-------7-------7-------7---3-3-3-3-3-3-3-3-----5-------5-------------|
C|-7-7-7-7-7-7-7-7-7-7-7-7-7-7-7-7-----------------5-5-5-5-5-5-5-5-----------|

[Guitar 2]
D|---------------------------------------------------------------------------|
A|---------------------------------------------------------------------------|
F|---------------------------------------------------------------------------|
C|-7-7-7-7-7-7-7-7-7-7-7-7-7-7-7-7-2-2-2-2-2-2-2-5-0-0-0-0-0-0-0-0-----------|
G|---------------------------------------------------------------------------|
C|---------------------------------------------------------------------------|

D|---------------------------------------------------------------------------|
A|---------------------------------------------------------------------------|
F|---------------------------------------------------------------------------|
C|-7-7-7-7-7-7-7-7-7-7-7-7-7-7-7-7-9-10101010101010101410101010-9-9-9-9------|
G|---------------------------------------------------------------------------|
C|---------------------------------------------------------------------------|

[Guitar 2]
(a lot of delay)
D|---------12p8h12p8----------------------------10p8------------10p8---------|
A|13p8h13p8---------13p8h13p8-12p8h12p8-12p8h12-----12p8-12p8h12----12p8 ----|
F|---------------------------------------------------------------------------|
C|---------------------------------------------------------------------------|
G|---------------------------------------------------------------------------|
C|---------------------------------------------------------------------------|

[Guitar 1] 
[Chorus]
D|---------------------------------------------------------------------------|
A|---------------------------------------------------------------------------|
F|-------------------------------------------------5-5-5-5-5-5-5-5-----------|
C|-3-3-3-3-3-3-3-3-0-0-0-0-0-0-0-0-7-7-7-7-7-7-7-7-5-5-5-5-5-5-5-5-----------|
G|-3-3-3-3-3-3-3-3-0-0-0-0-0-0-0-0-7-7-7-7-7-7-7-7-3-3-3-3-3-3-3-3-----------|
C|-3-3-3-3-3-3-3-3-0-0-0-0-0-0-0-0-7-7-7-7-7-7-7-7---------------------------|x2

[Guitar 2]
D|---------------------------------------------------------------------------|
A|---------------------------------------------------------------------------|
F|--1414141414141414161616161616161617171717171717171919191919191919---------|
C|--x-x-x-x-x-x-x-x-x-x-x-x-x-x-x-x-x-x-x-x-x-x-x-x-x-x-x-x-x-x-x-x----------|
G|--1212121212121212141414141414141415151515151515151717171717171717---------|
C|---------------------------------------------------------------------------|

D|---------------------------------------------------------------------------|
A|----------------------------------2020202020202020-------------------------|
F|--14141414141414141616161616161616x-x-x-x-x-x-x-x-1919191919191919---------|
C|--x-x-x-x-x-x-x-x-x-x-x-x-x-x-x-x-1717171717171717x-x-x-x-x-x-x-x----------|
G|--12121212121212121414141414141414----------------1717171717171717---------|
C|---------------------------------------------------------------------------|

[Chorus part 2] 
(Guitar 1)
D|----------------------------------------------------------------------------|
A|----------------------------------------------------------------------------|
F|---------------------------------------5-5-5-5-5-5-5-5----------------------|
C|-3-3------0-0--------5-7-7-7-7-7-7-7-7-5-5-5-5-5-5-5-5----------------------|
G|-3-3------0-0--------5-7-7-7-7-7-7-7-7-3-3-3-3-3-3-3-3----------------------|
C|-3-3------0-0--------3-5-5-5-5-5-5-5-5--------------------------------------|

[Guitar 2]
D|---------------------------------------------------------------------------|
A|---------------------------------------------------------------------------|
F|-----9-7------10-9-7-5-----------------------------------------------------|
C|-----x-x------x--x-x-x-----------------------------------------------------|
G|-----7-5------8--7-5-3-----------------------------------------------------|
C|---------------------------------------------------------------------------|

D|---------------------------------------------------------------------------|
A|---------------------------------------------------------------------------|
F|-----9-7------12~----------------------------------------------------------|
C|-----x-x------x------------------------------------------------------------|
G|-----7-5------10~----------------------------------------------------------|
C|---------------------------------------------------------------------------|

[Guitar 1]
[Bridge 2]
(A lot of Delay)
D|-----------------------------------------------------------------------------------|
A|----------------------------------------------------------------------------1-1p0-0|
F|---------------0-0-0-0--------------0-0-0-0---------------0-0-0-0------------------|
C|-----5p0-2p0--------------5p0-2p0--------------5p0-3p0------------5p0-3p0----------|
G|------------3p0------------------3p0------------------2p0----------------2p0-------|
C|-3-3------------------5-5------------------2-2-2-------------3-3-3-----------------|

[Guitar 1]
[Bridge 2]
D|---------------------------------------------------------------------------|
A|---------------------------------------------------------------------------|
F|---------------------------------------------------------------------------|
C|---------------------------------------------------------------------------|
G|-3-3-3-3-3-3-3-3-3-3-3-3-3-3-3-3-5-5-5-5-5-5-5-5-5-5-5-5-5-5-5-5-----------|
C|-3-3-3-3-3-3-3-3-3-3-3-3-3-3-3-3-5-5-5-5-5-5-5-5-5-5-5-5-5-5-5-5-----------|

D|---------------------------------------------------------------------------|
A|---------------------------------------------------------------------------|
F|---------------------------------------------------------------------------|
C|---------------------------------------------------------------------------|
G|-2-2-2-2-2-2-2-2-2-2-2-2-2-2-2-2-3-3-3-3-3-3-3-3-3-3-3-3-3-3-3-3-----------|
C|-2-2-2-2-2-2-2-2-2-2-2-2-2-2-2-2-3-3-3-3-3-3-3-3-3-3-3-3-3-3-3-3-----------|

[Solo] 
(Guitar 1)
D|---------------------------------------------------------------------------|
A|---------------------------------------------------------------------------|
F|-------------------5-5-55-5-5-5-55-5---------------------------------------|
C|-7-7-77-7-7-7-77-7-5-5-55-5-5-5-55-5-5-5-55-5-5-5-55-5-5-5-55-5-5-5-55-5---|
G|-7-7-77-7-7-7-77-7-3-3-33-3-3-3-33-3-5-5-55-5-5-5-55-5-5-5-55-5-5-5-55-5---|
C|-7-7-77-7-7-7-77-7-------------------5-5-55-5-5-5-55-5-5-5-55-5-5-5-55-5---|

[Solo]
(Guitar 2)
   T        T        T        T        T        T        T        T        T
D|--------------------------------------------------------------------------------|
A|-17p10h13-17p10h13-17p10h13-17p10h13-17p10h13-17p10h13-17p10h13-17p10h13-13p5h8-|
F|--------------------------------------------------------------------------------|
C|--------------------------------------------------------------------------------|
G|--------------------------------------------------------------------------------|
C|--------------------------------------------------------------------------------|

   T     T       T      T     T      T      T       T      T       T       T
D|--------------------------------------------------------------------------------|
A|13p5h8-13p5h8-13p5h8-13p5h8-13p5h8-13p5h8-13p5h8-15p8h12-15p8h12-15p8h12-15p8h12|
F|--------------------------------------------------------------------------------|
C|--------------------------------------------------------------------------------|
G|--------------------------------------------------------------------------------|
C|--------------------------------------------------------------------------------|

   T       T       T       T       T       T       T       T       T       T
D|--------------------------------------------------------------------------------|
A|-15p8h12-15p8h12-15p8h12-15p8h12-15p8h12-15p8h12-15p8h12-15p8h12-15p8h12-15p8h12|
F|--------------------------------------------------------------------------------|
C|--------------------------------------------------------------------------------|
G|--------------------------------------------------------------------------------|
C|--------------------------------------------------------------------------------|

   T       T 
D|--------------------------------------------------------------------------------|
A|-15p8h12-15p8h12----------------------------------------------------------------|
F|--------------------------------------------------------------------------------|
C|--------------------------------------------------------------------------------|
G|--------------------------------------------------------------------------------|
C|--------------------------------------------------------------------------------|x2

[Guitar 1+2]
D|---------------------------------------------------------------------------|
A|---------------------------------------------------------------------------|
F|---------------------------------------------------------------------------|
C|-3-3-----0-6-7~----5~------------------------------------------------------|
G|-3-3-----0-7-7~----5~------------------------------------------------------|
C|-3-3-----0-6-7~----5~------------------------------------------------------|

D|---------------------------------------------------------------------------|
A|---------------------------------------------------------------------------|
F|---------------------------------5-5-5-5-5-5-5-5---------------------------|
C|-3-3-----0-0-----7-7-7-7-7-7-7-7-5-5-5-5-5-5-5-5---------------------------|
G|-3-3-----0-0-----7-7-7-7-7-7-7-7-3-3-3-3-3-3-3-3---------------------------|
C|-3-3-----0-0-----7-7-7-7-7-7-7-7-------------------------------------------|

[Chorus part 2] 
(Guitar 1)
D|----------------------------------------------------------------------------|
A|----------------------------------------------------------------------------|
F|---------------------------------------5-5-5-5-5-5-5-5----------------------|
C|-3-3------0-0--------5-7-7-7-7-7-7-7-7-5-5-5-5-5-5-5-5----------------------|
G|-3-3------0-0--------5-7-7-7-7-7-7-7-7-3-3-3-3-3-3-3-3----------------------|
C|-3-3------0-0--------3-5-5-5-5-5-5-5-5--------------------------------------|

[Guitar 2]
D|---------------------------------------------------------------------------|
A|---------------------------------------------------------------------------|
F|-----9-7------10-9-7-5-----------------------------------------------------|
C|-----x-x------x--x-x-x-----------------------------------------------------|
G|-----7-5------8--7-5-3-----------------------------------------------------|
C|---------------------------------------------------------------------------|

D|---------------------------------------------------------------------------|
A|---------------------------------------------------------------------------|
F|-----9-7------12~----------------------------------------------------------|
C|-----x-x------x------------------------------------------------------------|
G|-----7-5------10~----------------------------------------------------------|
C|---------------------------------------------------------------------------|

[Outro] 
(Guitar 1)
D|---------------------------------------------------------------------------|
A|---------------------------------------------------------------------------|
F|-------------------------------------------------5-5-5-5-5-5-5-5-----------|
C|-3-3-3-3-3-3-3-3-0-0-0-0-0-0-0-0-7-7-7-7-7-7-7-7-5-5-5-5-5-5-5-5-----------|
G|-3-3-3-3-3-3-3-3-0-0-0-0-0-0-0-0-7-7-7-7-7-7-7-7-3-3-3-3-3-3-3-3-----------|
C|-3-3-3-3-3-3-3-3-0-0-0-0-0-0-0-0-7-7-7-7-7-7-7-7---------------------------|x2

[Outro] 
(Guitar 2)
D|---------------------------------------------------------------------------|
A|------------------10------------------------------------13----13p12--------|
F|----9-----9-----9-------9----10-9--------9-----9-----9-----12------12------|
C|---------------------------------------------------------------------------|
G|-7-7--7-7-----7-----7-7--7-7---------7-7---7-7----7------------------------|
C|---------------------------------------------------------------------------|x2

D|---------------------------------------------------------------------------|
A|---------------------------------------------------------------------------|
F|---------------------------------------------------------------------------|
C|-3~------------------------------------------------------------------------|
G|-3~------------------------------------------------------------------------|
C|-3~------------------------------------------------------------------------|


************************************

| p  Pull-off
| h  Hammer-on
| x  Dead note
| ~  Vibrato

************************************

            
            
Suggest correction
Creating personal tab
Creating personal tab
You can edit any tab online and save it as your Personal.

You can edit, replace or remove any tab part or add personal notes – all changes will be seen only by you.

Personal tabs can be accessed anytime from any device, even offline.
Learn more »
comments
print report bad tab
4 comments total. Showing first comments.
0 reply
llamaofguitar 104 Aug 28, 2013 10:32 PM

Great tab not perfect but somethings that i thought were different are... :)
Doesnt need delay but thats how it sounds to me listen closely :)
D|--------------------------------------------------------------------------
A|-------------------10------------------------------------13-13---13p12----
F|----9-----9---9-7------9----10-9--------9-----9---9-7---------12-------12-
C|--------------------------------------------------------------------------
G|-7-7--7-7---------7---7---7---------7-7---7-7-----------------------------
C|--------------------------------------------------------------------------
Pre chorus lead sounds like this once again without delay :)
D|-----------12-12-------------------------10-10-----------------------------
A|-13p8h13p8---------13p8h13p8------12p8h12------12p8h12-10-0-10-0-----------
F|----------------------------12-12------------------------------------------
C|---------------------------------------------------------------------------
G|---------------------------------------------------------------------------
C|---------------------------------------------------------------------------
end of lead in prechorus fades in to chorus :)
D|-----------12-12-----------12-12-----------------------|
A|-13p8h13p8-------13p8h13p8-------111111110000000-------|
F|-------------------------------------------------------|
C|-------------------------------------------------------|
G|-------------------------------------------------------|
C|-------------------------------------------------------|

0 reply
llamaofguitar 104 Aug 28, 2013 10:34 PM

other bits are a bit out but other than that its really good 4 stars :)

+1 reply
llamaofguitar 104 Aug 28, 2013 10:41 PM

D|-----------12-12-------------------------10-10-----------------------------
A|-13p8h13p8---------13p8h13p8------12p8h12------12p8h12-8-0-8-0-------------
F|----------------------------12-12------------------------------------------
C|---------------------------------------------------------------------------
G|---------------------------------------------------------------------------
C|---------------------------------------------------------------------------

guest
You may want to rate the tab now too:
select rating
Wanna post a correction for this tab? Suggest correction