Oops, an error
Loading. Please wait.

Starlight Acoustic tab

version 4
version 4

Whole song

Interactive

178 views 3 this week
no commentswrite comment
1 2 3 4 5
2 more votes to show rating
add to favorites
×
Save as Personal and add changes to this tab that will be seen only by you. Learn more ›
×
You can save this tab as Personal to edit and correct it or add notes. All changes will be seen only by you. Learn more »
launch autoscroll
font size
0
reset
how to read this tab
guitar tuner
edit
Autoscroll
slow
fast
+/-
esc
set tempo
stop
Author
Tabbed By: Fabio BlenderBR

Based on their acoustic performance of the song on BalcanyTV - https://www.youtube.com/watch?v=ilX7Jnluc7I

         **Tuning: Drop D**
        ( D  A  D  G  B  e )

Enjoy!


 - Intro:

e|---------------------------------------------------------------|
B|---------------------------------------------------------------|
G|--11-11--6-6--7-7-7-7-7-7-7-7---11-11--6-6--7-7-7-7-7-7-7-7----|
D|--9--9---4-4--5-5-5-5-5-5-5-5---9--9---4-4--5-5-5-5-5-5-5-5----|
A|--9--9---4-4--5-5-5-5-5-5-5-5---9--9---4-4--5-5-5-5-5-5-5-5----|
D|--9--9---4-4--5-5-5-5-5-5-5-5---9--9---4-4--5-5-5-5-5-5-5-5----|


 - Verse:
(So I've been thinking lately...)

e|----------------------------------------------------------------|
B|--------10-10---------------------------------------------------|
G|--7--7--7--7---11-11-14-14--6-6-6-6-6-6-6-6---------------------|
D|--0--0--0--0---0--0--0--0---0-0-0-0-0-0-0-0---------------------|
A|--x--x--x--x---0--0--0--0---x-x-x-x-x-x-x-x---------------------|     4x
D|--9--9--9--9---0--0--0--0---x-x-x-x-x-x-x-x---------------------|


 - Pre Chorus:
(Don't want to say goodnight let's live it up...)

e|---------------------------------------------------------------|
B|---------------------------------------------------------------|
G|--11-11--6-6--7-7-7-7-7-7-7-7---11-11--6-6--7-7-7-7-7-7-7-7----|
D|--9--9---4-4--5-5-5-5-5-5-5-5---9--9---4-4--5-5-5-5-5-5-5-5----|
A|--9--9---4-4--5-5-5-5-5-5-5-5---9--9---4-4--5-5-5-5-5-5-5-5----|
D|--9--9---4-4--5-5-5-5-5-5-5-5---9--9---4-4--5-5-5-5-5-5-5-5----|


 - Chorus:
(Walk me home tonight I swear I could...)

e|----------------------------------------------------------|
B|----------------------------------------------------------|
G|-11-11-11-11-14-14-14-14-9-9-9-9-9-9-9-9-9-9-9-9-9-9------|
D|-x--x--x--x--x--x--x--x--7-7-7-7-7-7-7-7-7-7-7-7-7-7------|
A|-9--9--9--9--12-12-12-12-7-7-7-7-7-7-7-7-7-7-7-7-7-7------|
D|-0--0--0--0--0--0--0--0--7-7-7-7-7-7-7-7-7-7-7-7-7-7------|

(Don't want to say goodnight let's live it up...)

e|---------------------------------------------------------------|
B|---------------------------------------------------------------|
G|--11-11--6-6--7-7-7-7-7-7-7-7---11-11--6-6--7-7-7-7-7-7-7-7----|
D|--9--9---4-4--5-5-5-5-5-5-5-5---9--9---4-4--5-5-5-5-5-5-5-5----|
A|--9--9---4-4--5-5-5-5-5-5-5-5---9--9---4-4--5-5-5-5-5-5-5-5----|
D|--9--9---4-4--5-5-5-5-5-5-5-5---9--9---4-4--5-5-5-5-5-5-5-5----|

(Light me up tonight I swear I could...)

e|----------------------------------------------------------|
B|----------------------------------------------------------|
G|-11-11-11-11-14-14-14-14-9-9-9-9-9-9-9-9-9-9-9-9-9-9------|
D|-x--x--x--x--x--x--x--x--7-7-7-7-7-7-7-7-7-7-7-7-7-7------|
A|-9--9--9--9--12-12-12-12-7-7-7-7-7-7-7-7-7-7-7-7-7-7------|
D|-0--0--0--0--0--0--0--0--7-7-7-7-7-7-7-7-7-7-7-7-7-7------|

e|---------------------------------------------------|
B|---------------------------------------------------|
G|--11-11--6-6--7-7-7-7-7-7-7-7---11-11--6-6--7//----|
D|--9--9---4-4--5-5-5-5-5-5-5-5---9--9---4-4--5//----|
A|--9--9---4-4--5-5-5-5-5-5-5-5---9--9---4-4--5//----|
D|--9--9---4-4--5-5-5-5-5-5-5-5---9--9---4-4--5//----|


 - Verse 2:
(So you've been thinking lately...)

e|----------------------------------------------------------------|
B|--------10-10---------------------------------------------------|
G|--7--7--7--7---11-11-14-14--6-6-6-6-6-6-6-6---------------------|
D|--0--0--0--0---0--0--0--0---0-0-0-0-0-0-0-0---------------------|
A|--x--x--x--x---0--0--0--0---x-x-x-x-x-x-x-x---------------------|     4x
D|--9--9--9--9---0--0--0--0---x-x-x-x-x-x-x-x---------------------|

 - Pre Chorus:
(Don't want to say goodnight let's live it up...)

e|---------------------------------------------------------------|
B|---------------------------------------------------------------|
G|--11-11--6-6--7-7-7-7-7-7-7-7---11-11--6-6--7-7-7-7-7-7-7-7----|
D|--9--9---4-4--5-5-5-5-5-5-5-5---9--9---4-4--5-5-5-5-5-5-5-5----|
A|--9--9---4-4--5-5-5-5-5-5-5-5---9--9---4-4--5-5-5-5-5-5-5-5----|
D|--9--9---4-4--5-5-5-5-5-5-5-5---9--9---4-4--5-5-5-5-5-5-5-5----|


 - Chorus:
(Walk me home tonight I swear I could...)

e|----------------------------------------------------------|
B|----------------------------------------------------------|
G|-11-11-11-11-14-14-14-14-9-9-9-9-9-9-9-9-9-9-9-9-9-9------|
D|-x--x--x--x--x--x--x--x--7-7-7-7-7-7-7-7-7-7-7-7-7-7------|
A|-9--9--9--9--12-12-12-12-7-7-7-7-7-7-7-7-7-7-7-7-7-7------|
D|-0--0--0--0--0--0--0--0--7-7-7-7-7-7-7-7-7-7-7-7-7-7------|

(Don't want to say goodnight let's live it up...)

e|---------------------------------------------------------------|
B|---------------------------------------------------------------|
G|--11-11--6-6--7-7-7-7-7-7-7-7---11-11--6-6--7-7-7-7-7-7-7-7----|
D|--9--9---4-4--5-5-5-5-5-5-5-5---9--9---4-4--5-5-5-5-5-5-5-5----|
A|--9--9---4-4--5-5-5-5-5-5-5-5---9--9---4-4--5-5-5-5-5-5-5-5----|
D|--9--9---4-4--5-5-5-5-5-5-5-5---9--9---4-4--5-5-5-5-5-5-5-5----|

(Light me up tonight I swear I could...)

e|----------------------------------------------------------|
B|----------------------------------------------------------|
G|-11-11-11-11-14-14-14-14-9-9-9-9-9-9-9-9-9-9-9-9-9-9------|
D|-x--x--x--x--x--x--x--x--7-7-7-7-7-7-7-7-7-7-7-7-7-7------|
A|-9--9--9--9--12-12-12-12-7-7-7-7-7-7-7-7-7-7-7-7-7-7------|
D|-0--0--0--0--0--0--0--0--7-7-7-7-7-7-7-7-7-7-7-7-7-7------|


 - Bridge:

(...Oh, under your starlight)

e|-------------------------------------------------------------------------------------|
B|-------------------------------------------------------------------------------------|
G|-7-7-7-7-7-7-7-7-9-9-9-9-9-9-9-9-11-11-11-11-11-11-11-11-14-14-14-14-14-14-14-14-----|
D|-5-5-5-5-5-5-5-5-7-7-7-7-7-7-7-7-9--9--9--9--9--9--9--9--12-12-12-12-12-12-12-12-----|
A|-5-5-5-5-5-5-5-5-7-7-7-7-7-7-7-7-9--9--9--9--9--9--9--9--12-12-12-12-12-12-12-12-----|
D|-5-5-5-5-5-5-5-5-7-7-7-7-7-7-7-7-9--9--9--9--9--9--9--9--12-12-12-12-12-12-12-12-----|

(Well our jeans are well ripped with our pockets thin...)

e|-------------------------------------------------------------------------------------|
B|-------------------------------------------------------------------------------------|
G|-7-7-7-7-7-7-7-7-9-9-9-9-9-9-9-9-11-11-11-11-11-11-11-11-14-14-14-14-14-14-14-14-----|
D|-5-5-5-5-5-5-5-5-7-7-7-7-7-7-7-7-9--9--9--9--9--9--9--9--12-12-12-12-12-12-12-12-----|
A|-5-5-5-5-5-5-5-5-7-7-7-7-7-7-7-7-9--9--9--9--9--9--9--9--12-12-12-12-12-12-12-12-----|
D|-5-5-5-5-5-5-5-5-7-7-7-7-7-7-7-7-9--9--9--9--9--9--9--9--12-12-12-12-12-12-12-12-----|

(Well it's never felt better to have nothing but you...)

e|-----------------------------------------------------------------------------|
B|-----------------------------------------------------------------------------|
G|-7-7-7-7-7-7-7-7-9-9-9-9-9-9-9-9-11-11-11-11-11-11-11-11-9-9-9-9-9-9-9-9-----|
D|-5-5-5-5-5-5-5-5-7-7-7-7-7-7-7-7-9--9--9--9--9--9--9--9--7-7-7-7-7-7-7-7-----|
A|-5-5-5-5-5-5-5-5-7-7-7-7-7-7-7-7-9--9--9--9--9--9--9--9--7-7-7-7-7-7-7-7-----|
D|-5-5-5-5-5-5-5-5-7-7-7-7-7-7-7-7-9--9--9--9--9--9--9--9--7-7-7-7-7-7-7-7-----|


 - Pre Chorus:

e|---------------------------------------------------------------|
B|---------------------------------------------------------------|
G|--11-11--6-6--7-7-7-7-7-7-7-7---11-11--6-6--7-7-7-7-7-7-7-7----|
D|--9--9---4-4--5-5-5-5-5-5-5-5---9--9---4-4--5-5-5-5-5-5-5-5----|
A|--9--9---4-4--5-5-5-5-5-5-5-5---9--9---4-4--5-5-5-5-5-5-5-5----|
D|--9--9---4-4--5-5-5-5-5-5-5-5---9--9---4-4--5-5-5-5-5-5-5-5----|

(Don't want to say goodnight let's live it up...)

e|---------------------------------------------------------------|
B|---------------------------------------------------------------|
G|--11-11--6-6--7-7-7-7-7-7-7-7---11-11--6-6--7-7-7-7-7-7-7-7----|
D|--9--9---4-4--5-5-5-5-5-5-5-5---9--9---4-4--5-5-5-5-5-5-5-5----|
A|--9--9---4-4--5-5-5-5-5-5-5-5---9--9---4-4--5-5-5-5-5-5-5-5----|
D|--9--9---4-4--5-5-5-5-5-5-5-5---9--9---4-4--5-5-5-5-5-5-5-5----|


 - Chorus:
(Walk me home tonight I swear I could...)

e|----------------------------------------------------------|
B|----------------------------------------------------------|
G|-11-11-11-11-14-14-14-14-9-9-9-9-9-9-9-9-9-9-9-9-9-9------|
D|-x--x--x--x--x--x--x--x--7-7-7-7-7-7-7-7-7-7-7-7-7-7------|
A|-9--9--9--9--12-12-12-12-7-7-7-7-7-7-7-7-7-7-7-7-7-7------|
D|-0--0--0--0--0--0--0--0--7-7-7-7-7-7-7-7-7-7-7-7-7-7------|

(Don't want to say goodnight let's live it up...)

e|---------------------------------------------------------------|
B|---------------------------------------------------------------|
G|--11-11--6-6--7-7-7-7-7-7-7-7---11-11--6-6--7-7-7-7-7-7-7-7----|
D|--9--9---4-4--5-5-5-5-5-5-5-5---9--9---4-4--5-5-5-5-5-5-5-5----|
A|--9--9---4-4--5-5-5-5-5-5-5-5---9--9---4-4--5-5-5-5-5-5-5-5----|
D|--9--9---4-4--5-5-5-5-5-5-5-5---9--9---4-4--5-5-5-5-5-5-5-5----|

(Light me up tonight I swear I could...)

e|----------------------------------------------------------|
B|----------------------------------------------------------|
G|-11-11-11-11-14-14-14-14-9-9-9-9-9-9-9-9-9-9-9-9-9-9------|
D|-x--x--x--x--x--x--x--x--7-7-7-7-7-7-7-7-7-7-7-7-7-7------|
A|-9--9--9--9--12-12-12-12-7-7-7-7-7-7-7-7-7-7-7-7-7-7------|
D|-0--0--0--0--0--0--0--0--7-7-7-7-7-7-7-7-7-7-7-7-7-7------|

(...Oh, under your starlight...)

e|---------------------------------------------------------------|
B|---------------------------------------------------------------|
G|--11-11--6-6--7-7-7-7-7-7-7-7---11-11--6-6--7-7-7-7-7-7-7-7----|
D|--9--9---4-4--5-5-5-5-5-5-5-5---9--9---4-4--5-5-5-5-5-5-5-5----|
A|--9--9---4-4--5-5-5-5-5-5-5-5---9--9---4-4--5-5-5-5-5-5-5-5----|
D|--9--9---4-4--5-5-5-5-5-5-5-5---9--9---4-4--5-5-5-5-5-5-5-5----|

e|---------------------------------------------------|
B|---------------------------------------------------|
G|--11-11--6-6--7-7-7-7-7-7-7-7---11-11--6-6--7//----|
D|--9--9---4-4--5-5-5-5-5-5-5-5---9--9---4-4--5//----|
A|--9--9---4-4--5-5-5-5-5-5-5-5---9--9---4-4--5//----|
D|--9--9---4-4--5-5-5-5-5-5-5-5---9--9---4-4--5//----|
__________
Hope you liked!

Tabbed by: Fabio BlenderBR

            
            
Suggest correction
Creating personal tab
Creating personal tab
You can edit any tab online and save it as your Personal.

You can edit, replace or remove any tab part or add personal notes – all changes will be seen only by you.

Personal tabs can be accessed anytime from any device, even offline.
Learn more »
Give kudos to tab author, rate the tab!
1 2 3 4 5
comments
print report bad tab
guest
You may want to rate the tab now too:
select rating
Wanna post a correction for this tab? Suggest correction