Oops, an error
Loading. Please wait.

Tus Modos tab

by Tontxu
29 views 1 this week
no commentswrite comment
1 2 3 4 5
3 more votes to show rating
add to favorites
×
Save as Personal and add changes to this tab that will be seen only by you. Learn more ›
×
You can save this tab as Personal to edit and correct it or add notes. All changes will be seen only by you. Learn more »
launch autoscroll
font size
0
reset
how to read this tab
guitar tuner
edit
Autoscroll
slow
fast
+/-
esc
set tempo
stop
Nota: Las partituras están sacadas tal y como vienen tocadas 
en el disco "Se vende" (estoy casi seguro que es así) 

    - Versos 
  
         MIm                   SOL                  LA 
    |---------------------------------------------------------------------| 
    |-------0-----0-----0---------2-----2-----2---------0-----0-----0-----| 
    |---------0-----0-----0---------0-----0-----0---------2-----2-----2---| 
    |-----------2-----2-----2---------0-----0-----0---------2-----2-----2-| 
    |------------------------------------------------0--------------------| 
    |----0---------------------3------------------------------------------| 

         DO 
    |-----------------------------| 
    |-------1-----1-----1---------| 
    |---------0-----0-----0-------| 
    |-----------2-----2-----2-----| 
    |----3------------------------| 
    |-----------------------------| 

    - Estribillo 

         MIm        SOL       LA        DO 
    |-----------------------------------------------| 
    |-------0----------2---------0---------1--------| 
    |---------0----------0---------2---------0------| 
    |-----------2----------0---------2---------2----| 
    |-------------------------0---------3-----------| 
    |----0----------3-------------------------------| 

  
    - LETRA 

        Dame enseñanza prestame tus recuerdos 
        Tu me das confianza tienes lo que deseo 
        Tienen tus gestos aire de haber vivido 
        No pisaba las clases y ahora estudio sin libros 

        Tus modos tu forma de ser tu forma de pedir café 
        Tus frases, tu forma de amar tu forma de resucitar 

        Dame consejos de esos tan oportunos 
        Los que tu no te aplicas me adelanto al camino 
        Tienen tus ojos aire de haber sufrido 
        Y a pesar de lo habido aun conservan su brillo 

        Los miro con la ingenuidad de un niño que quiere aprender 
        Me miran con serenidad me enseñan a resucitar 

        Dame consejos de esos tan oportunos 
        Los que tu no te aplicas me adelanto al camino 
        Tienen tus ojos aire de haber sufrido 
        Y a pesar de lo habido aun conservan su brillo 

        Los miro con la ingenuidad de un niño que quiere aprender 
        Me miran con serenidad me enseñan a resucitar 
  
        Tus modos tu forma de ser tu forma de pedir café 
        Tus frases, tu forma de amar tu forma de resucitar 

* ABC : Versos 
* ABC : Estribillo 
  

    Cualquier sugerencia, crítica, interés, odio, petición, charla, intercambio de partituras
etc...

            
            
Suggest correction
Creating personal tab
Creating personal tab
You can edit any tab online and save it as your Personal.

You can edit, replace or remove any tab part or add personal notes – all changes will be seen only by you.

Personal tabs can be accessed anytime from any device, even offline.
Learn more »
Give kudos to tab author, rate the tab!
1 2 3 4 5
comments
print report bad tab
guest
Wanna post a correction for this tab? Suggest correction