Oops, an error
Loading. Please wait.

Dopamine tab

version 2
version 2

Whole song

2,534 views 1 this week
no commentswrite comment
1 2 3 4 5
1 last vote to show rating
add to favorites
×
Save as Personal and add changes to this tab that will be seen only by you. Learn more ›
×
You can save this tab as Personal to edit and correct it or add notes. All changes will be seen only by you. Learn more »
launch autoscroll
font size
0
reset
how to read this tab
guitar tuner
edit
Autoscroll
slow
fast
+/-
esc
set tempo
stop
Author
-------------------------------------------------------------------------------
                             Dopamine - Tony Iommi
-------------------------------------------------------------------------------
Tabbed by: Ilos
Artist: Tony Iommi
Album: Fused

Tuning: Drop C#  - (top)D# A# F# C# G# C#(Bottom)

   ****Mute Notes As you see fit****
***Only tabbed Out the rhythm guitar***


(Intro Without Drums)
D#|-----------------------------------------------------------|
A#|-----------------------------------------------------------|
F#|-----------------------------------------------------------|
C#|-----------------------------------------------------------| X2
G#|-----------------------------------------------------------|
C#|--0h3h5-0h2h3-0--0h3h5-0h2h3/5~--0h3h5-0h2h3-0--0h3h5-0----|

(Intro With Drums)  *Main Riff*
**add on the 5th if you want it to sound more Heavy**
D#|----------------------------------------------------------|
A#|----------------------------------------------------------|
F#|----------------------------------------------------------|
C#|----------------------------------------------------------|
G#|----------------------------------------------------------|
C#|--0h3h5-0h2h3-0--0h3h5-0h2h3/5~--0h3h5-0h2h3-0--0h3h5-0---|

D#|-----------------------------------------------------------|
A#|-----------------------------------------------------------|
F#|-----------------------------------------------------------|
C#|-----------------------------------------------------------|
G#|-----------------------------------------------------5-----|
C#|--0h3h5-0h2h3-0--0h3h5-0h2h3/5~--0h3h5-0h2h3-0--0h3h5-53~--|

(Verse)
D#|-------------------------------------------------------|
A#|-------------------------------------------------------|
F#|-------------------------------------------------------|
C#|-------------------------------------------------------|
G#|--00-0-/5~-00----------------00-0-/5~-00---------------|
C#|--00-0-----00----------------00-0-----00---------------|

D#|-------------------------------------------------------|
A#|-------------------------------------------------------|
F#|-------------------------------------------------------|
C#|-------------------------------------------------------|
G#|--00-0-/5~-00----------------00-0-/5~-00------5--------|
C#|--00-0-----00----------------00-0-----00-0h3h5-53~-----|


(Pre Chorus) *Listen to song to get rhythm*
D#|-------------------------------------------------------------|
A#|-------------------------------------------------------------|
F#|--5---------5-------------------5----------------------------|
C#|--5----0----5----3--5--0--------5----0----33333333-55555555--|
G#|--3----0----3----3--5--0--------3----0----33333333-55555555--|
C#|-------0---------3--5--0-------------0----33333333-55555555--|


(Chorus) *Listen to song to get rhythm*
D#|-----------------------------------------------------------|
A#|-----------------------------------------------------------|
F#|-----------------------------------------------------------|
C#|--0----3------5----8----------0----3------5----8--88/10----|
G#|--0----3------5----8----------0----3------5----8--88/10----|
C#|--0----3------5----8----------0----3------5----8--88/10----|


**Main Riff**

**Verse**

**Pre Chorus**

**Chorus**


(Bridge)
D#|-----------------|
A#|-----------------|
F#|-----------------|
C#|--5------8-------|
G#|--5------8-------|
C#|--5------8-------|

(Solo) *Main Riff*
   Little variation in the solo riff first time through
   Its only the open C#5

 i.e. --0--
      --0-- =Open C#5 chord (C#5)


**Chorus**

**Main Riff**

_____

| /  slide up
| h  hammer-on
| ~  vibrato
_____


================================================

            
            
Suggest correction
Creating personal tab
Creating personal tab
You can edit any tab online and save it as your Personal.

You can edit, replace or remove any tab part or add personal notes – all changes will be seen only by you.

Personal tabs can be accessed anytime from any device, even offline.
Learn more »
Give kudos to tab author, rate the tab!
1 2 3 4 5
comments
print report bad tab
guest
You may want to rate the tab now too:
select rating
Wanna post a correction for this tab? Suggest correction