Oops, an error
Loading. Please wait.

Quarter To Midnight tab

version 1
version 1

Whole song

Interactive

1,296 views 1 this week
no commentswrite comment
1 2 3 4 5
1 last vote to show rating
add to favorites
×
Save as Personal and add changes to this tab that will be seen only by you. Learn more ›
×
You can save this tab as Personal to edit and correct it or add notes. All changes will be seen only by you. Learn more »
launch autoscroll
font size
0
reset
how to read this tab
guitar tuner
edit
Autoscroll
slow
fast
+/-
esc
set tempo
stop
Author
Difficulty
Quarter To Midnight                               

Tony MacAlpine

From the album: Edge Of Insanity
Tabbed by: Rick Devone

Guitar 1


     |---3---|            |---3---|  |---3--|   
     E   E   E   S  E.    E   E   E  Q      E   
E||--------------------------------------------|
B||--------------------------------------------|
G||--------------------------------------------|
D||-------------12-12~---10--------------------|
A||---------10---------------10----------------|
E||--8--11-----------------------11--8s~----3--|


                  PM PM  PM PM PM PM 
  E  E  H         E  E   S  S  S  S  
------------------------------------|
------------------------------------|
------------------------------------|
------------------------------------|
--5--6--3---------------------10-10-|
-----------------/8--8--11-11-------|


   PM PM PM PM PM PM PM PM PM PM PM PM PM PM PM PM 
   S  S  S  S  S  S  S  S  S  S  S  S  S  S  S  S  
--------------------------------------------------|
--------------------------------------------------|
--------------------------------------------------|
--10-10-13-13-12-12-------------13-13-12-12-------|
--------------------10-10-11-11-------------11-11-|
--------------------------------------------------|


   PM PM PM PM PM PM PM PM PM  PM PMPM PM  PM PM 
   S  S  S  S  S  S  S  S  E   S  S S  S   S  S  
------------------------------------------------|
------------------------------------------------|
------------------------------------------------|
--------13-13-12-12-----------10-10-8--8--------|
--12-12-------------12-12-13--------------11-11-|
------------------------------------------------|


 PM PMPM PM PM PM PM PM                                                       
                              |--3--| |-3-|                               
 S  S S  S  S  S  S  S  Q     E  E  E S S S T T   T T  T T T  T T T T  T  
-------------------------------------|----------------------------------|
-------------------------------------|----------------------------------|
-------------------------------------|--------------7----7-8-10-8-7-8-10|
------------------------------------5|5-6-8-6-8s-10---10----------------|
10-10-8--8--6--6--5--5--------6--6---|----------------------------------|
------------------------8~-----------|----------------------------------|


  |--6-| |--6-|   |-----7-----|  7  7 --- 3  3             
  S S  S S S  S   S  S  S  S  S  S  S  S  S  S  Q      E   
--------------------10-11-10-10-11-13-15-16-17-20~----15--|
--8-9-11-8-9-11s-13---------------------------------------|
----------------------------------------------------------|
----------------------------------------------------------|
----------------------------------------------------------|
----------------------------------------------------------|


 T  T  T  T  T  T  T  T  T  T  T  T  T  T  T  T  T   T  T  T  T  T  T  T  T  T
16-18-16-15-16----15----------------------------------------------------------
---------------18----18-16-15----------15-16-15-------------------------------
------------------------------17-16-17----------17s-15-13-12-13----12---------
----------------------------------------------------------------15----13-15-12
------------------------------------------------------------------------------
------------------------------------------------------------------------------


                                                       W            
            |--3--|  |--6--|  |--6--|                               
   T  T  T  X  X  X  T  T  T  T  T  T  T  T  T  T  E   Q    E.   S  
--------------------------------------15-------15-20--20----L---20-|
--------------------13-15-16-13-15-16-------16---------------------|
--12-13-15-12-13-15----------------------17------------------------|
-------------------------------------------------------------------|
-------------------------------------------------------------------|
-------------------------------------------------------------------|


   E    S  S  S  S  S  S  S  E   S  S  S  S  S  S    S  S  S  
--19~--14-15-17-15-14-12-14-11--11-14-11---------------11-14-|
-----------------------------------------12----12-<>12-------|
--------------------------------------------11---------------|
-------------------------------------------------------------|
-------------------------------------------------------------|
-------------------------------------------------------------|


 T     T           T     T           T     T          T          T     T      
                                                      |-----5----|  |--3--|   
 S  S  T  T  T  T  S  S  T  T  T  T  S  S  T  T T  T  T  T T  T  T  T  T  T T 
20-13-19-13-11----20-13-19-13-11----20-13-17-12-9----17-12-9----17-12-17-12-9
---------------12----------------12---------------10---------10--------------
-----------------------------------------------------------------------------
-----------------------------------------------------------------------------
-----------------------------------------------------------------------------
-----------------------------------------------------------------------------


      T          T         T       T  T      T     
              |----5----|             |----5----|  
   S  S S  S  S  S  S S S  S  S S  S  S S S  S  S  
--12-17-9----12-15-10-7---15-10-7-17-15-7---17-10-|
----------10------------8-----------------8-------|
--------------------------------------------------|
--------------------------------------------------|
--------------------------------------------------|
--------------------------------------------------|


   T           T     T        T    T    T      T        
   |--6--|  |--6--|                     |-3-|           
   S  S  S  S  S  S  S S S S  S S  S S  S S S  T T T T  
--15-----7-10-15-10-13-8-5---13-8-15-5-13-5-8-15-8-5---|
-----(8)-------------------6-------------------------6-|
-------------------------------------------------------|
-------------------------------------------------------|
-------------------------------------------------------|
-------------------------------------------------------|


   T    T                 T    T            T              
                          |----7---| |-----7----| 7 7 7 7  
   S S  S S  S S S T  T   S S  S S S S  S   S S S S S S S  
--13-8-12-7-11-0---0-(1)-12-7-13-8-5-------13-8-9-6-----6-|
-----------------0-------------------6--------------7-----|
---------------------------------------(5)------------8---|
----------------------------------------------------------|
----------------------------------------------------------|
----------------------------------------------------------|


 T    T                T        T     T     T                           
           |----5---|  |-----7-----|  7  7       |--3-|  |--6-| |--6-|  
 T T  T  T T T T T  T  S  S  S  S  S  S  S  S  S S  S S  S S  S S  S S  
14-9-15-10-7-----7-10-15-10-12-17-12-17-12-16-12-9-12-8----9----------|
---------------8----------------------------------------10---10---10--|
-------------7--------------------------------------------------9----6|
----------------------------------------------------------------------|
----------------------------------------------------------------------|
----------------------------------------------------------------------|


  |-6-| |-6-|                                                
  S S S S S S S S E   Q.     E      Q    Q    Q     S E   S  
--------------------------------|---------------------------|
--------------------------------|------------------------10-|
--9-6---6-----------------------|------------------/6-9-----|
------7-------------------------|-------------7-------------|
----------7-4-7-4---------------|--/4----7------------------|
------------------5~--L------3--|---------------------------|


              T                                  
           |--3--|            |---3---|          
   S S  S  T  T  T     Q      E   E   E   Q      
--12-9----12-17-12-17g12s----17--18--20--21~----|
-------10---------------------------------------|
------------------------------------------------|
------------------------------------------------|
------------------------------------------------|
------------------------------------------------|


                                          \1/    W           
   Q     Q      Q.       E         Q      Q      Q.      E   
--21----21b----21b-------Lpbr--|---------21b----21b---------|
-------------------------------|----------0-----------------|
-------------------------------|----------------------------|
-------------------------------|--\x/-----------------------|
-------------------------------|--\x/-----------------------|
-------------------------------|--\x/--------------------0--|


                                    T     T    T    T    T  
  W                     E   E  E.   S  S  S S  S S  S S  S  
-------------------|---------------------------------------|
-------------------|---------------------------------------|
-------------------|---------------------------------------|
--0----------------|-------12--L---13-10-13-8-13-7-13-5-13-|
--0----------------|---------------------------------------|
--2----------------|--/10----------------------------------|


     T    T    T    T    T    T    T    T       T        T    T  
  S  S S  S S  S S  S S  S S  S S  S S  S    S  S S S S  S S  S  
------------------------------------------|---------------------|
------------------------------------------|---------------------|
------------------------------------------|---------------------|
--4-13-5-13-7-13-5-13-7-13-8-13-7-12-5-12-|--7-12-8-7-5-12-5-12-|
------------------------------------------|---------------------|
------------------------------------------|---------------------|


     T    T    T    T    T    T    T      
  S  S S  S S  S S  S S  S S  S S  S S S  
-----------------------------------------|
-----------------------------------------|
-----------------------------------------|
--8-12-7-12-5-12-4-12-7-12-5-12-4-12-4-0-|
-----------------------------------------|
-----------------------------------------|


     T    T    T    T        T    T    T  
  S  S S  S S  S S  S S S S  S S  S S  S  
-----------------------------------------|
-----------------------------------------|
-----------------------------------------|
--8-12-7-12-5-12-4-12-7-0-5-12-4-12-5-12-|
-----------------------------------------|
-----------------------------------------|


     T    T    T    T    T    T    T    T  
  S  S S  S S  S S  S S  S S  S S  S S  S  
------------------------------------------|
------------------------------------------|
----------------------8-12-7-12-5-12-3----|
--7-12-8-12-7-12-5-12------------------12-|
------------------------------------------|
------------------------------------------|


     T    T    T    T    T    T    T    T  
  S  S S  S S  S S  S S  S S  S S  S S  S  
------------------------------------------|
------------------------------------------|
------------------------------------------|
--7-12-5-12-4---------------------12-5-12-|
--------------12-5-12-6-12-5-12-6---------|
------------------------------------------|


     T    T    T    T    T    T    T    T  
  S  S S  S S  S S  S S  S S  S S  S S  S  
------------------------------------------|
------------------------------------------|
------------------------------------------|
--8-12-7-12-5-12-4-12-7-12-5-12-4-12-5-12-|
------------------------------------------|
------------------------------------------|


     T    T    T    T    T    T    T    T  
  S  S S  S S  S S  S S  S S  S S  S S  S  
------------------------------------------|
------------------------------------------|
------------------------------------------|
--8-12-7-12-5-12-4-12-7-12-5-12-4-12-5-12-|
------------------------------------------|
------------------------------------------|


   T    T    T    T    T    T    T    T     T    T    T    T    T      T  
                                                                  |--3-|  
S  S S  S S  S S  S S  S S  S S  S S  S  S  S S  S S  S S  S S  S S S  S  
---------------------------------------|---------------------------------|
---------------------------------------|---------------------------------|
8-12-7-12-5-12-3-----------------------|---------------------------------|
-----------------12-7-12-5-12-4-12-5-12|-7-12-0--------------------------|
---------------------------------------|--------12-6-12-5-12-6-12-5-9-12-|
---------------------------------------|---------------------------------|


     T      T            T            T            T      
  |--3-|          |-6-|  |-6-| |-6-|  |-6-| |-6-|  |-6-|  
  S  S S T  T T T S S S  S S S S S S  S S S S S S  S S S  
--5-10-5-8-11-8-5-8-5-8-10-8-5-8-5-8-10-8-5-8-5-8-10-8-5-|
---------------------------------------------------------|
---------------------------------------------------------|
---------------------------------------------------------|
---------------------------------------------------------|
---------------------------------------------------------|


         T            T          T          T    
  |-6-|  |-6-| |-6-|  |-6-| |--3-| |-3-| |--3-|  
  S S S  S S S S S S  S S S S S  S E   S S  S S  
--8-5-8-12-8-5-8-5-8-11-8-5-8-5-12-8b--8-5-11-8-|
------------------------------------------------|
------------------------------------------------|
------------------------------------------------|
------------------------------------------------|
------------------------------------------------|


           T               T               T               T       
   |--6-|  |--6-|  |--6-|  |--6-|  |--6-|  |--6-|  |--6-|  |--6-|  
   S S  S  S  S S  S S  S  S  S S  S S  S  S  S S  S S  S  S  S S  
--10-7-10-12-10-7-10-7-10-12-10-7-10-7-10-12-10-7-10-7-10-13-10-7-|
------------------------------------------------------------------|
------------------------------------------------------------------|
------------------------------------------------------------------|
------------------------------------------------------------------|
------------------------------------------------------------------|


           T               T               T               T       
   |--6-|  |--6-|  |--6-|  |--6-|  |--6-|  |--6-|  |--6-|  |--6-|  
   S S  S  S  S S  S S  S  S  S S  S S  S  S  S S  S S  S  S  S S  
--11-7-10-14-10-7-10-7-10-13-10-7-11-7-10-13-10-7-11-7-10-14-10-7-|
------------------------------------------------------------------|
------------------------------------------------------------------|
------------------------------------------------------------------|
------------------------------------------------------------------|
------------------------------------------------------------------|


           T               T                           T     T     
   |--6-|  |--6-|  |--6-|  |--6-|  |----5----|   |--6--|  |--6--|  
   S S  S  S  S S  S S  S  S  S S  S S  S S  S   S  S  S  S  S  S  
--11-7-11-14-11-7-11-7-11-14-11-7-12-7-11-7s-5s-11-14-17-14-17-14-|
------------------------------------------------------------------|
------------------------------------------------------------------|
------------------------------------------------------------------|
------------------------------------------------------------------|
------------------------------------------------------------------|


                                |--6--|  |--6--| |--6-| |-6-|  
    S  S  S  S  S  S  S  T  T   S  S  S  S  S  S S  S S S S S  
--/17-20-17-20-17-20-17-20-17-\14-17-14-11-14-11-8-11-8-5-8-5-|
--------------------------------------------------------------|
--------------------------------------------------------------|
--------------------------------------------------------------|
--------------------------------------------------------------|
--------------------------------------------------------------|


  |--6-| |--6-| |-6-| |-6-| |-6-| |-6-|          
  S  S S S  S S S S S S S S S S S S S S S  S E   
------------------------------------------------|
--7-10-7----------------------------------------|
---------8-11-8-5-8-5-2-5-2---------------------|
----------------------------4-7-4---------------|
----------------------------------6-9-6---------|
----------------------------------------8s-5-7--|


                |-6-| |-6-| |--6-| |--6-|  
  E.  S E  S. T S S S S S S S  S S S S  S  
------------------------------------------|
------------------------------------------|
------------------------------------------|
----------------------------7-10-7---7-10-|
----------------6-9-6---6-9--------9------|
--L---5-7--5--7-------7-------------------|


  |--6-|  |-6-|              |--6--|  |--6--|        
  S  S S  S S S  S  S  S  S  S  S  S  S  S  S  Q     
--------------8-------10-11-11-14-11----14-15~-L----|
----------------11-10----------------13-------------|
--8-11-8----9---------------------------------------|
---------10-----------------------------------------|
----------------------------------------------------|
----------------------------------------------------|


  E   S  S  S  S  S  S  S  S  S  S  S  S  S     S  
--L--14-15-17-14-19-14-17-14-15----14-------16g19-|
--------------------------------17----16-17-------|
--------------------------------------------------|
--------------------------------------------------|
--------------------------------------------------|
--------------------------------------------------|


  E   S  S  S  E   S  S  S  S  S  S  S  S  S     W                  
--L--15--------------------------------------|---------------------|
--------17-12-13-----12----------------------|---------------------|
------------------14----12-14-11-12----11----|---------------------|
------------------------------------14----13-|--14~----------------|
---------------------------------------------|---------------------|
---------------------------------------------|---------------------|


     W                                                         
                    |-3-|                                      
  E  Q.     E   S S S S S E     E  E   E  E   E   E   E   S S  
-----7------L----------------|--------------------------------|
---------------10-8-7-8-7----|-----------------------13-------|
--------------------------9--|--8--9--11---------12---L--11-9-|
-----------------------------|------------9--10---L---L-------|
-----------------------------|--------------------------------|
--0--------------------------|--------------------------------|


                                    |--3--|                    |--3--|  
E  E   E  E  E  E  E  E   E   Q     S  S  S  S  S  S  S  S  S  S  S  S  
------------------------|----12----13-12-10-------------------------12-|
------------------------|-------------------13-12-10-------12----13----|
8-----------------------|----------------------------13-14----14-------|
---9--10--7--6--9--7--7-|-L--------------------------------------------|
------------------------|----------------------------------------------|
------------------------|----------------------------------------------|


               W                                                         
  S  S   S  S  H         E   E    Q     Q    E   S  S  T  T  T  T  S  S  
-17-17s-20-20-20---------------|-------22----L--17-18-17-18-17-15-17----|
-------------------------------|-------------------------------------18-|
-------------------------------|----------------------------------------|
------------------------19\--0-|----------------------------------------|
-------------------------------|-17-----L-------------------------------|
-------------------------------|----------------------------------------|


                          W                                           
  S  S  T  T  T  T  S  S  E  Q    E   E    Q    H         E   S  S   
----------------17-22-17-22--L-----------|------3--------15--17-19~-|
-17-15-17-15-18-------------------x\-----|------3-------------------|
----------------------------------x\-----|-0----0-------------------|
-----------------------------------------|-0----L-------------------|
-----------------------------------------|--------------------------|
--------------------------------------0--|-3----L-------------------|


                                |--6--|  |--6--|  
  Q     S  S  S  S  S  S  S  S  S  S  S  S  S  S  
--L----17-15----------15----------15-17-19-17-15-|
-------------18-17-18----18-17-18----------------|
-------------------------------------------------|
-------------------------------------------------|
-------------------------------------------------|
-------------------------------------------------|


                         |--3--|        |--|  |--|  
   Q      S  S  S  S E   S  S  S  S  S  S  T  T  S  
--20~----15-------15-L-----------------------------|
------------17-18-------18-17-15-17----15----------|
------------------------------------17----15-17-19-|
---------------------------------------------------|
---------------------------------------------------|
---------------------------------------------------|


   7  7  7  7  7  7  7                             
   S  S  S  S  S  S  S  Q      E   S  S  E   S  S  
--------------------------------------------------|
--17-18-20-18-17-18-20-20b----18------------------|
----------------------------------14-15-17--15-14-|
--------------------------------------------------|
--------------------------------------------------|
--------------------------------------------------|


                           |--6--|  |--6--|  |--6--|  |--6--|  
   S  S  S  S  S  S  S  S  S  S  S  S  S  S  S  S  S  S  S  S  
-----------------13-15-17-15-15-13-------13-15-13-------------|
--------15----15-------------------17-16----------16-13-16-15-|
--15-17----17-------------------------------------------------|
--------------------------------------------------------------|
--------------------------------------------------------------|
--------------------------------------------------------------|


 |--6--|  |--6--|  |--|  |--|  |--6--|  |--6--|  |--6--|  |-6-|  |--6--|  
 S  S  S  S  S  S  S  T  T  S  S  S  S  S  S  S  S  S  S  E   S  S  S  S  
------------------------------------------------------------------------|
---13-15----------------------------------------------------------------|
15-------12-13-15----12-13-12-----------------------------------------12|
------------------13----------13-15-12-13----12-------12-13--13-13-15---|
------------------------------------------15----13-15-------------------|
------------------------------------------------------------------------|


 |--6--|  |--6--|  |--6--|  |--6--|  |--6--|  |--6--|  |--6--|  |--6--|  
 S  S  S  S  S  S  S  S  S  S  S  S  S  S  S  S  S  S  S  S  S  S  S  S  
-----------------------------------------------------------------------|
-----------------------------------------------------------------------|
13-15-13-12-13-12-------------12-13-15-13-12-13-12-------------12-13-15|
------------------15-13-13-15----------------------15-12-13-15---------|
-----------------------------------------------------------------------|
-----------------------------------------------------------------------|


 |--6--|  |--6--|  |--6--|  |--6--|  |-----5-----|  |-----7-----|  7  7  
 S  S  S  S  S  S  S  S  S  S  S  S  S  S  S  S  S  S  S  S  S  S  S  S  
-----------------------------------------------------------------------|
------------------------------------------------------------------11-12|
13-12-13----------------13-15-13-12----------12-13-15-13-12-11-13------|
---------15-13-12-15-13-------------15-12-15---------------------------|
-----------------------------------------------------------------------|
-----------------------------------------------------------------------|


   |--6--|  |--6--|  |-----5-----|  |-----5-----|  |--6--|  |--6--|  
   S  S  S  S  S  S  S  S  S  S  S  S  S  S  S  S  S  S  S  S  S  S  
--------------------------------------------------------------------|
--11----------------11-12-11-------------------12-13-12-------------|
-----13-11----11-13----------13-11----11-13-14----------14-12----12-|
-----------13----------------------14-------------------------14----|
--------------------------------------------------------------------|
--------------------------------------------------------------------|


   7  7  7  7  7  7  7  7  7  7  7  7  7  7 --- |--6--|  6  6              
   S  S  S  S  S  S  S  S  S  S  S  S  S  S  S  S  S  S  S  S  S  S  S  S  
--------------------------------------------------------------------------|
-----12-13-12----------------13-15----13----------------------13-14-------|
--14----------14-12-------15-------15----15-13----------13-15-------15-13-|
--------------------15-15----------------------16-15-16-------------------|
--------------------------------------------------------------------------|
--------------------------------------------------------------------------|


   S  S  S  S  S  S     S  S  S  S  S  S  S  S  S  S  
-----------------------------13-14----13-14-16-18-19-|
--------12-14-15-12-14g15-17-------16----------------|
--11-14----------------------------------------------|
-----------------------------------------------------|
-----------------------------------------------------|
-----------------------------------------------------|


   |---3---|                                       
   E   E   E   S  S  S  S  S  S  S  S  S  S  S  S  
--18--16------------16-18-19-18-16----------17-19-|
----------19--16-19----------------20-17-20-------|
--------------------------------------------------|
--------------------------------------------------|
--------------------------------------------------|
--------------------------------------------------|


   S  S  S  S  S  S  S  S  S  S  S  S  S  S  S  S  
--20-19-17----------16-18-19-18-16----------15-17-|
-----------19-16-19----------------18-15-18-------|
--------------------------------------------------|
--------------------------------------------------|
--------------------------------------------------|
--------------------------------------------------|


   S  S  S  S  S  S  S  S  S  S  S  S  S  S  S  S  
--18-17-15----------14-16-17-16-14----------13-15-|
-----------17-14-17----------------16-13-16-------|
--------------------------------------------------|
--------------------------------------------------|
--------------------------------------------------|
--------------------------------------------------|


   S  S  S  S  S  S  S  S  S  S  S  S  S  S  S  S  
--16-13-12----12--x-12-12-------------------------|
-----------12-------------15-13-12-13-12-13-13-12-|
--------------------------------------------------|
--------------------------------------------------|
--------------------------------------------------|
--------------------------------------------------|


                |---3---|   |---3---|   |---3--|   
   S  S  S   S  E   E   E   E   E   E   E  E   E   
--------------------------------------------------|
-----12--------10---------------------------------|
--14----14s-11-----11------12--11------11--9------|
-----------------------12----------13---------11--|
--------------------------------------------------|
--------------------------------------------------|


                                                \2/    \5/                    
                          |--3--|                                             
  S  S  S T  T S  S  S S  S  S  S S  S  Q.      E      Q.     E   H           
----------------------------------------------------|------------22b~--------|
----------------------------------------------------|------------------------|
----------------------------------------------------|------------------------|
--9-10-10-9----9------------------------------------|------------------------|
------------12---10-12-9-10-12-10-9-----------------|------------------------|
------------------------------------11-12~------0---|--L------L--------------|


  \6/                  
  H.           Q       
---------------------||
---------------------||
---------------------||
--2------------L~----||
--2------------L~----||
--0------------L~----||




Duration Legend
---------------
W - whole
H - half
Q - quarter
E - 8th
S - 16th
T - 32nd
X - 64th
. - note dotted
|-n-|  - n-tuplets


Tablature Legend
----------------
L - tied note
x - dead note
g - grace note
(n) - ghost note
> - accentuded note
NH - natural harmonic
AH - artificial harmonic
TH - tapped harmonic
SH - semi harmonic
PH - pitch harmonic
h - hammer on
p - pull off
b - bend
br - bendRelease
pb - preBend
pbr - preBendRelease
brb - bendReleaseBend
\n/ - tremolo bar dip
\n - tremolo bar dive
-/n - tremolo bar Release up
/n\ - tremolo bar inverted dip
/n - tremolo bar return
-\n - tremolo bar Release down
S - shift slide
s - legato slide
/ -  slide into from below or out of upwards
\ -  slide into from above or out of downwards
~ - vibrato
W - wide vibrato
tr - trill
TP - tremolo picking
T - tapping
S - slap
P - pop
< - fade in
^ - brush up
v - brush down

            
            
Suggest correction
Creating personal tab
Creating personal tab
You can edit any tab online and save it as your Personal.

You can edit, replace or remove any tab part or add personal notes – all changes will be seen only by you.

Personal tabs can be accessed anytime from any device, even offline.
Learn more »
Give kudos to tab author, rate the tab!
1 2 3 4 5
comments
print report bad tab
guest
You may want to rate the tab now too:
select rating
Wanna post a correction for this tab? Suggest correction