Oops, an error
Loading. Please wait.

10000 Days Wings Part 2 bass

version 2
version 2

Whole song

Interactive

by Tool
15,215 views 21 this week
1 commentread comment
1 2 3 4 5
x 11
add to favorites
×
Save as Personal and add changes to this tab that will be seen only by you. Learn more ›
×
You can save this tab as Personal to edit and correct it or add notes. All changes will be seen only by you. Learn more »
launch autoscroll
font size
0
reset
guitar tuner
edit
Autoscroll
slow
fast
+/-
esc
set tempo
stop
#----------------------------------PLEASE NOTE---------------------------------#
#This file is the author's own work and represents their interpretation of the #
#song. You may only use this file for private study, scholarship, or research. #
#------------------------------------------------------------------------------#

10,000 DAYS WINGS PART 2 (Bassline)
As recorded by Tool
(From the 2006 Album 10,000 DAYS )

Transcribed by unregistered
	

Words by Maynard James Keenan Music by Tool

Gtr I (D A D G) - 'Bass'

   Intro
   6/4
    Gtr I
     E E  E E  E E  E E  E E  E E
||--------------------------------|
||o-10---10---10---10---10---10---|
||o----0----0----0----0----0----0-|
||--------------------------------|


  E E E E E E E E E E E E    E E  E E  E E  E E  E E  E E
|-------------------------|--------------------------------|
|-9---9---9---9---9---9---|-10---10---10---10---10---10----|
|---0---0---0---0---0---0-|----0----0----0----0----0----0--|
|-------------------------|--------------------------------|


  E E E E E E E E E E E E   E E E E E E E E E E E E
|-------------------------|-----0-----0-----0-----0-|
|-9---9---9---9---9---9---|---7-----7-----7-----7---|
|---0---0---0---0---0---0-|-0-----0-----0-----0-----|
|-------------------------|-------------------------|


  E E E E E E E E E E E E
|-----0-----0-----0-----0---||
|---7-----7-----7-----7----o||
|-0-----0-----0-----0------o||
|---------------------------||


   E E  E E  E E  E E  E E  E E   E E E E E E E E E E E E
|-------------------------------|-------------------------|
|-10---10---10---10---10---10---|-9---9---9---9---9---9---|
|----0----0----0----0----0----0-|---0---0---0---0---0---0-|
|-------------------------------|-------------------------|


   E E  E E  E E  E E  E E  E E
|--------------------------------|
|-10---10---10---10---10---10----|
|----0----0----0----0----0----0--|
|--------------------------------|


  E E E E E E E E E E E E   E E E E E E E E E E E E   E E E E E E E E E E E E
|-------------------------|-----0-----0-----0-----0-|-----0-----0-----0-----0--|
|-9---9---9---9---9---9---|---7-----7-----7-----7---|---7-----7-----7-----7----|
|---0---0---0---0---0---0-|-0-----0-----0-----0-----|-0-----0-----0-----0------|
|-------------------------|-------------------------|--------------------------|


   E E  E E  E E  E E  E E  E E   E E E E E E E E E E E E
|-------------------------------|-------------------------|
|-10---10---10---10---10---10---|-9---9---9---9---9---9---|
|----0----0----0----0----0----0-|---0---0---0---0---0---0-|
|-------------------------------|-------------------------|


   E E  E E  E E  E E  E E  E E
|--------------------------------|
|-10---10---10---10---10---10----|
|----0----0----0----0----0----0--|
|--------------------------------|


  E E E E E E E E E E E E   E E E E E E E E E E E E
|-------------------------|-----0-----0-----0-----0-|
|-9---9---9---9---9---9---|---7-----7-----7-----7---|
|---0---0---0---0---0---0-|-0-----0-----0-----0-----|
|-------------------------|-------------------------|


  E E E E E E E E E E E E
|-----0-----0-----0-----0--||
|---7-----7-----7-----7----||
|-0-----0-----0-----0------||
|--------------------------||


 Vocals Enter
   E E  E E  E E  E E  E E  E E   E E E E E E E E E E E E
|-------------------------------|-------------------------|
|-10---10---10---10---10---10---|-9---9---9---9---9---9---|
|----0----0----0----0----0----0-|---0---0---0---0---0---0-|
|-------------------------------|-------------------------|


   E E  E E  E E  E E  E E  E E
|--------------------------------|
|-10---10---10---10---10---10----|
|----0----0----0----0----0----0--|
|--------------------------------|


  E E E E E E E E E E E E   E E E E E E E E E E E E   E E E E E E E E E E E E
|-------------------------|-----0-----0-----0-----0-|-----0-----0-----0-----0--|
|-9---9---9---9---9---9---|---7-----7-----7-----7---|---7-----7-----7-----7----|
|---0---0---0---0---0---0-|-0-----0-----0-----0-----|-0-----0-----0-----0------|
|-------------------------|-------------------------|--------------------------|


   E E  E E  E E  E E  E E  E E   E E E E E E E E E E E E
|-------------------------------|-------------------------|
|-10---10---10---10---10---10---|-9---9---9---9---9---9---|
|----0----0----0----0----0----0-|---0---0---0---0---0---0-|
|-------------------------------|-------------------------|


   E E  E E  E E  E E  E E  E E
|--------------------------------|
|-10---10---10---10---10---10----|
|----0----0----0----0----0----0--|
|--------------------------------|


  E E E E E E E E E E E E   E E E E E E E E E E E E   E E E E E E E E E E E E
|-------------------------|-----0-----0-----0-----0-|-----0-----0-----0-----0--|
|-9---9---9---9---9---9---|---7-----7-----7-----7---|---7-----7-----7-----7----|
|---0---0---0---0---0---0-|-0-----0-----0-----0-----|-0-----0-----0-----0------|
|-------------------------|-------------------------|--------------------------|


   E E  E E  E E  E E  E E  E E   E E E E E E E E E E E E
|-------------------------------|-------------------------|
|-10---10---10---10---10---10---|-9---9---9---9---9---9---|
|----0----0----0----0----0----0-|---0---0---0---0---0---0-|
|-------------------------------|-------------------------|


   E E  E E  E E  E E  E E  E E
|--------------------------------|
|-10---10---10---10---10---10----|
|----0----0----0----0----0----0--|
|--------------------------------|


  E E E E E E E E E E E E   E E E E E E E E E E E E   E E E E E E E E E E E E
|-------------------------|-----0-----0-----0-----0-|-----0-----0-----0-----0--|
|-9---9---9---9---9---9---|---7-----7-----7-----7---|---7-----7-----7-----7----|
|---0---0---0---0---0---0-|-0-----0-----0-----0-----|-0-----0-----0-----0------|
|-------------------------|-------------------------|--------------------------|


   E E  E E  E E  E E  E E  E E   E E E E E E E E E E E E
|-------------------------------|-------------------------|
|-10---10---10---10---10---10---|-9---9---9---9---9---9---|
|----0----0----0----0----0----0-|---0---0---0---0---0---0-|
|-------------------------------|-------------------------|


   E E  E E  E E  E E  E E  E E
|--------------------------------|
|-10---10---10---10---10---10----|
|----0----0----0----0----0----0--|
|--------------------------------|


  E E E E E E E E E E E E   E E E E E E E E E E E E   E E E E E E E E E E E E
|-------------------------|-----0-----0-----0-----0-|-----0-----0-----0-----0--|
|-9---9---9---9---9---9---|---7-----7-----7-----7---|---7-----7-----7-----7----|
|---0---0---0---0---0---0-|-0-----0-----0-----0-----|-0-----0-----0-----0------|
|-------------------------|-------------------------|--------------------------|


   E E  E E  E E  E E  E E  E E   E E E E E E E E E E E E
|-------------------------------|-------------------------|
|-10---10---10---10---10---10---|-9---9---9---9---9---9---|
|----0----0----0----0----0----0-|---0---0---0---0---0---0-|
|-------------------------------|-------------------------|


   E E  E E  E E  E E  E E  E E
|--------------------------------|
|-10---10---10---10---10---10----|
|----0----0----0----0----0----0--|
|--------------------------------|


  E E E E E E E E E E E E   E E E E E E E E E E E E   E E E E E E E E E E E E
|-------------------------|-----0-----0-----0-----0-|-----0-----0-----0-----0--|
|-9---9---9---9---9---9---|---7-----7-----7-----7---|---7-----7-----7-----7----|
|---0---0---0---0---0---0-|-0-----0-----0-----0-----|-0-----0-----0-----0------|
|-------------------------|-------------------------|--------------------------|


     E E  E E  E E  E E  E E  E E
||--------------------------------|
||o-10---10---10---10---10---10---|
||o----0----0----0----0----0----0-|
||--------------------------------|


  E E E E E E E E E E E E    E E  E E  E E  E E  E E  E E
|-------------------------|-------------------------------|
|-9---9---9---9---9---9---|-10---10---10---10---10---10---|
|---0---0---0---0---0---0-|----0----0----0----0----0----0-|
|-------------------------|-------------------------------|


  E E E E E E E E E E E E   E E E E E E E E E E E E   E E E E E E E E E E E E
|-------------------------|-----0-----0-----0-----0-|-----0-----0-----0-----0--|
|-9---9---9---9---9---9---|---7-----7-----7-----7---|---7-----7-----7-----7----|
|---0---0---0---0---0---0-|-0-----0-----0-----0-----|-0-----0-----0-----0------|
|-------------------------|-------------------------|--------------------------|


   E E  E E  E E  E E  E E  E E   E E E E E E E E E E E E
|-------------------------------|-------------------------|
|-10---10---10---10---10---10---|-9---9---9---9---9---9---|
|----0----0----0----0----0----0-|---0---0---0---0---0---0-|
|-------------------------------|-------------------------|


   E E  E E  E E  E E  E E  E E
|--------------------------------|
|-10---10---10---10---10---10----|
|----0----0----0----0----0----0--|
|--------------------------------|


  E E E E E E E E E E E E   E E E E E E E E E E E E
|-------------------------|-----0-----0-----0-----0-|
|-9---9---9---9---9---9---|---7-----7-----7-----7---|
|---0---0---0---0---0---0-|-0-----0-----0-----0-----|
|-------------------------|-------------------------|


  E E E E E E E E E E E E   3x
|-----0-----0-----0-----0---||
|---7-----7-----7-----7----o||
|-0-----0-----0-----0------o||
|---------------------------||


   E E  E E  E E  E E  E E  E E   E E E E E E E E E E E E
|-------------------------------|-------------------------|
|-10---10---10---10---10---10---|-9---9---9---9---9---9---|
|----0----0----0----0----0----0-|---0---0---0---0---0---0-|
|-------------------------------|-------------------------|


   E E  E E  E E  E E  E E  E E
|--------------------------------|
|-10---10---10---10---10---10----|
|----0----0----0----0----0----0--|
|--------------------------------|


  E E E E E E E E E E E E   E E E E E E E E E E E E   E E E E E E E E E E E E
|-------------------------|-----0-----0-----0-----0-|-----0-----0-----0-----0--|
|-9---9---9---9---9---9---|---7-----7-----7-----7---|---7-----7-----7-----7----|
|---0---0---0---0---0---0-|-0-----0-----0-----0-----|-0-----0-----0-----0------|
|-------------------------|-------------------------|--------------------------|


     E E  E E  E E  E E  E E  E E
||--------------------------------|
||o-10---10---10---10---10---10---|
||o----0----0----0----0----0----0-|
||--------------------------------|


  E E E E E E E E E E E E    E E  E E  E E  E E  E E  E E
|-------------------------|-------------------------------|
|-9---9---9---9---9---9---|-10---10---10---10---10---10---|
|---0---0---0---0---0---0-|----0----0----0----0----0----0-|
|-------------------------|-------------------------------|


  E E E E E E E E E E E E   E E E E E E E E E E E E
|-------------------------|-----0-----0-----0-----0-|
|-9---9---9---9---9---9---|---7-----7-----7-----7---|
|---0---0---0---0---0---0-|-0-----0-----0-----0-----|
|-------------------------|-------------------------|


  E E E E E E E E E E E E
|-----0-----0-----0-----0---||
|---7-----7-----7-----7----o||
|-0-----0-----0-----0------o||
|---------------------------||


   E E  E E  E E  E E  E E  E E   E E E E E E E E E E E E
|-------------------------------|-------------------------|
|-10---10---10---10---10---10---|-9---9---9---9---9---9---|
|----0----0----0----0----0----0-|---0---0---0---0---0---0-|
|-------------------------------|-------------------------|


   E E  E E  E E  E E  E E  E E
|--------------------------------|
|-10---10---10---10---10---10----|
|----0----0----0----0----0----0--|
|--------------------------------|


   E E  E E  E E E E E E E E
|----------------------------|
|-12---12---12---9---9---9---|
|----0----0----0---0---0---0-|
|----------------------------|


  E E E E E E E E E E E E   E E E E E E E E E E E E
|-----0-----0-----0-----0-|-----0-----0-----0-----0--|
|---7-----7-----7-----7---|---7-----7-----7-----7----|
|-0-----0-----0-----0-----|-0-----0-----0-----0------|
|-------------------------|--------------------------|


   E E  E E  E E  E E  E E  E E   E E E E E E E E E E E E
|-------------------------------|-------------------------|
|-10---10---10---10---10---10---|-9---9---9---9---9---9---|
|----0----0----0----0----0----0-|---0---0---0---0---0---0-|
|-------------------------------|-------------------------|


   E E  E E  E E  E E  E E  E E    E E  E E  E E  Q   Q   Q
|-------------------------------|------------------------------|
|-10---10---10---10---10---10---|-12---12---12---14--14--14----|
|----0----0----0----0----0----0-|----0----0----0--0---0---0----|
|-------------------------------|------------------------------|


    Q  Q  W          H.      H.        H.      H.        H.      Q  Q  Q     4x
||--------9--------|-----------------|-----------------|---------------------||
||o----------------|-----------------|-----------------|---------------5----o||
||o-0--0-----------|-5-------2-------|-3-------0-------|-2------------------o||
||-----------------|-----------------|-----------------|---------5--5--------||


     Q   Q   Q   Q   Q   Q    Q  Q  Q  Q  Q  Q     Q   Q   Q   Q   Q   Q
||--------------------------|-------------------|-------------------------|
||o-10--10--10--10--10--10--|-9--9--9--9--9--9--|-10--10--10--10--10--10--|
||o-------------------------|-------------------|-------------------------|
||--------------------------|-------------------|-------------------------|


  Q  Q  Q  Q  Q  Q    E E E E E E E E E E E E   E E E E E E E E E E E E
|-------------------|-----0-----0-----0-----0-|-----0-----0-----0-----0---||
|-9--9--9--9--9--9--|---7-----7-----7-----7---|---7-----7-----7-----7----o||
|-------------------|-0-----0-----0-----0-----|-0-----0-----0-----0------o||
|-------------------|-------------------------|---------------------------||


   Q   Q   Q   Q   Q   Q    Q  Q  Q  Q  Q  Q     Q   Q   Q   Q   Q   Q
|-------------------------|-------------------|--------------------------|
|-10--10--10--10--10--10--|-9--9--9--9--9--9--|-10--10--10--10--10--10---|
|-------------------------|-------------------|--------------------------|
|-------------------------|-------------------|--------------------------|


   Q   Q   Q  Q  Q  Q    Q   E Q   E Q  E Q.     Q   E Q   E Q  E Q.
|----------------------|----12----11----9------|----12----11----9-------|
|-12--12--12--7--7--7--|-----------------------|------------------------|
|----------------------|-0-----0-----0----0----|-0-----0-----0----0-----|
|----------------------|-----------------------|------------------------|


   Q   Q   Q   Q   Q   Q    Q  Q  Q  Q  Q  Q    Q  Q  Q  Q  Q  Q
|-------------------------|-------------------|--------------------|
|-10--10--10--10--10--10--|-9--9--9--9--9--9--|-9--9--9--7--7--7---|
|-------------------------|-------------------|--------------------|
|-------------------------|-------------------|--------------------|


   E  E  E  E  E  E  E  E  E  Q.     Q   E Q   E Q  E Q.
|----------------------------------|----12----11----9------|
|----12----12----12----12----14----|-----------------------|
|-12----12----12----12----12-------|-0-----0-----0----0----|
|----------------------------------|-----------------------|


  Q   E Q   E Q  E Q.     Q   E Q   E Q  E Q.     Q   E Q   E Q  E Q.
|----12----11----9------|----12----11----9------|----12----11----9-------||
|-----------------------|-----------------------|------------------------||
|-0-----0-----0----0----|-0-----0-----0----0----|-0-----0-----0----0-----||
|-----------------------|-----------------------|------------------------||


 Climax
 9/4
  Q  E Q  E Q  E  E E E E E E E E E   Q  E Q  E Q  E  E E E E E E E E E
|-----------------------------------|------------------------------------|
|-7----5----7----10-7---5-7---------|-7----5----7----10-7---5-7----------|
|----0----0----0------0-----0-5-7-0-|----0----0----0------0-----0-5-7-0--|
|-----------------------------------|------------------------------------|


  Q  E Q  E Q  E  E E E E E E E E E   Q  E Q  E Q  E  E E E E E E E E E
|-----------------------------------|-----------------------------------|
|-7----5----7----10-7---5-7---------|-7----5----7----10-7---5-7---------|
|----0----0----0------0-----0-5-7-0-|----0----0----0------0-----0-5-7-0-|
|-----------------------------------|-----------------------------------|


  Q  E Q  E Q  E  E E E E E E E E E   Q  E Q  E Q  E  E E E E E E E E E
|-----------------------------------|-----------------------------------|
|-7----5----7----10-7---5-7---------|-7----5----7----10-7---5-7---------|
|----0----0----0------0-----0-5-7-0-|----0----0----0------0-----0-5-7-0-|
|-----------------------------------|-----------------------------------|


  Q  E Q  E Q  E  E E E E E E E E E   Q  E Q  E Q  E  E E E E E E E E E
|-----------------------------------|-----------------------------------|
|-7----5----7----10-7---5-7---------|-7----5----7----10-7---5-7---------|
|----0----0----0------0-----0-5-7-0-|----0----0----0------0-----0-5-7-0-|
|-----------------------------------|-----------------------------------|


  Q  E Q  E Q  E  E E E E E E E E E   Q  E Q  E Q  E  E E E E E E E E E
|-----------------------------------|-----------------------------------|
|-7----5----7----10-7---5-7---------|-7----5----7----10-7---5-7---------|
|----0----0----0------0-----0-5-7-0-|----0----0----0------0-----0-5-7-0-|
|-----------------------------------|-----------------------------------|


  Q  E Q  E Q  E  E E E E E E E E E   Q  E Q  E Q  E  E E E E E E E E E
|-----------------------------------|-----------------------------------|
|-7----5----7----10-7---5-7---------|-7----5----7----10-7---5-7---------|
|----0----0----0------0-----0-5-7-0-|----0----0----0------0-----0-5-7-0-|
|-----------------------------------|-----------------------------------|


  Q  E Q  E Q  E  E E E E E E E E E   Q  E Q  E Q  E  E E E E E E E E E
|-----------------------------------|-----------------------------------|
|-7----5----7----10-7---5-7---------|-7----5----7----10-7---5-7---------|
|----0----0----0------0-----0-5-7-0-|----0----0----0------0-----0-5-7-0-|
|-----------------------------------|-----------------------------------|


  Q  E Q  E Q  E  E E E E E E E E E   Q  E Q  E E E E E E E E E E E E E
|-----------------------------------|---------------5---7---8---7---5---||
|-7----5----7----10-7---5-7---------|-7----5----7-----------------------||
|----0----0----0------0-----0-5-7-0-|----0----0---0---0---0---0---0---0-||
|-----------------------------------|-----------------------------------||


 Solo
  Q  E Q  E Q  E  E E E E E E E E E   Q  E Q  E Q  E  E E E E E E E E E
|-----------------------------------|-----------------------------------|
|-7----5----7----10-7---5-7---------|-7----5----7----10-7---5-7---------|
|----0----0----0------0-----0-5-7-0-|----0----0----0------0-----0-5-7-0-|
|-----------------------------------|-----------------------------------|


  Q  E Q  E Q  E  E E E E E E E E E   Q  E Q  E Q  E  E E E E E E E E E
|-----------------------------------|-----------------------------------|
|-7----5----7----10-7---5-7---------|-7----5----7----10-7---5-7---------|
|----0----0----0------0-----0-5-7-0-|----0----0----0------0-----0-5-7-0-|
|-----------------------------------|-----------------------------------|


  Q  E Q  E Q  E  E E E E E E E E E   Q  E Q  E Q  E  E E E E E E E E E
|-----------------------------------|-----------------------------------|
|-7----5----7----10-7---5-7---------|-7----5----7----10-7---5-7---------|
|----0----0----0------0-----0-5-7-0-|----0----0----0------0-----0-5-7-0-|
|-----------------------------------|-----------------------------------|


  Q  E Q  E Q  E  E E E E E E E E E   Q  E Q  E Q  E  E E E E E E E E E
|-----------------------------------|-----------------------------------|
|-7----5----7----10-7---5-7---------|-7----5----7----10-7---5-7---------|
|----0----0----0------0-----0-5-7-0-|----0----0----0------0-----0-5-7-0-|
|-----------------------------------|-----------------------------------|


  Q  E Q  E Q  E  E E E E E E E E E   Q  E Q  E Q  E  E E E E E E E E E
|-----------------------------------|-----------------------------------|
|-7----5----7----10-7---5-7---------|-7----5----7----10-7---5-7---------|
|----0----0----0------0-----0-5-7-0-|----0----0----0------0-----0-5-7-0-|
|-----------------------------------|-----------------------------------|


  Q  E Q  E Q  E  E E E E E E E E E   Q  E Q  E Q  E  E E E E E E E E E
|-----------------------------------|-----------------------------------|
|-7----5----7----10-7---5-7---------|-7----5----7----10-7---5-7---------|
|----0----0----0------0-----0-5-7-0-|----0----0----0------0-----0-5-7-0-|
|-----------------------------------|-----------------------------------|


  Q  E Q  E Q  E  E E E E E E E E E   Q  E Q  E Q  E  E E E E E E E E E
|-----------------------------------|-----------------------------------|
|-7----5----7----10-7---5-7---------|-7----5----7----10-7---5-7---------|
|----0----0----0------0-----0-5-7-0-|----0----0----0------0-----0-5-7-0-|
|-----------------------------------|-----------------------------------|


  E E E E E E E E E E E E E E E E E E   E E E E E E E E E E E E E E E E E E
|-------------------------------------|-------------------------------------|
|-7---5---7---5---7---5---7---5---7---|-5---7---5---7---5---7---5---7---5---|
|---0---0---0---0---0---0---0---0---0-|---0---0---0---0---0---0---0---0---0-|
|-------------------------------------|-------------------------------------|


  Q  E Q  E Q  E  E E E E E E E E E   Q  E Q  E Q  E  E E E E E E E E E
|-----------------------------------|-----------------------------------|
|-7----5----7----10-7---5-7---------|-7----5----7----10-7---5-7---------|
|----0----0----0------0-----0-5-7-0-|----0----0----0------0-----0-5-7-0-|
|-----------------------------------|-----------------------------------|


  Q  E Q  E Q  E  E E E E E E E E E   Q  E Q  E Q  E  E E E E E E E E E
|-----------------------------------|-----------------------------------|
|-7----5----7----10-7---5-7---------|-7----5----7----10-7---5-7---------|
|----0----0----0------0-----0-5-7-0-|----0----0----0------0-----0-5-7-0-|
|-----------------------------------|-----------------------------------|


  Q  E Q  E Q  E  E E E E E E E E E   Q  E Q  E Q  E  E E E E E E E E E
|-----------------------------------|-----------------------------------||
|-7----5----7----10-7---5-7---------|-7----5----7----10-7---5-7---------||
|----0----0----0------0-----0-5-7-0-|----0----0----0------0-----0-5-7-0-||
|-----------------------------------|-----------------------------------||


 Wings
  Q  E Q  E Q  E  E E E E E E E E E   Q  E Q  E Q  E  E E E E E E E E E
|-----------------------------------|-----------------------------------|
|-7----5----7----10-7---5-7---------|-7----5----7----10-7---5-7---------|
|----0----0----0------0-----0-5-7-0-|----0----0----0------0-----0-5-7-0-|
|-----------------------------------|-----------------------------------|


  Q  E Q  E Q  E  E E E E E E E E E   Q  E Q  E Q  E  E E E E E E E E E
|-----------------------------------|-----------------------------------|
|-7----5----7----10-7---5-7---------|-7----5----7----10-7---5-7---------|
|----0----0----0------0-----0-5-7-0-|----0----0----0------0-----0-5-7-0-|
|-----------------------------------|-----------------------------------|


  Q  E Q  E Q  E  E E E E E E E E E   Q  E Q  E Q  E  E E E E E E E E E
|-----------------------------------|-----------------------------------|
|-7----5----7----10-7---5-7---------|-7----5----7----10-7---5-7---------|
|----0----0----0------0-----0-5-7-0-|----0----0----0------0-----0-5-7-0-|
|-----------------------------------|-----------------------------------|


  Q  E Q  E Q  E  E E E E E E E E E   Q  E Q  E Q  E  E E E E E E E E E
|-----------------------------------|-----------------------------------|
|-7----5----7----10-7---5-7---------|-7----5----7----10-7---5-7---------|
|----0----0----0------0-----0-5-7-0-|----0----0----0------0-----0-5-7-0-|
|-----------------------------------|-----------------------------------|


  E E E E E E E E E E E E E E E E E E   E E E E E E E E E E E E E E E E E E
|-------------------------------------|-------------------------------------|
|-------5-7-----------5-7-------------|-5-7-----------5-7-------------5-7---|
|-3-0-0-----0---0-3-0-----0---0-3-0-0-|-----0---0-3-0-----0---0-3-0-0-----0-|
|-------------------------------------|-------------------------------------|


  E E E E E E E E E E E E E E E E E E   E E E E E E E E E E E E E E E E E E
|-------------------------------------|-------------------------------------|
|---------5-7-------------5-7---------|---5-7-------------5-7-----------5-7-|
|---0-3-0-----0---0-3-0-0-----0---0-3-|-0-----0---0-3-0-0-----0---0-3-0-----|
|-------------------------------------|-------------------------------------|


  E E E E E E E E E E E E E E E E E E   E E E E E E E E E E E E E E E E E E
|-------------------------------------|-------------------------------------|
|-------------5-7-----------5-7-------|-------5-7-----------5-7-------------|
|-0---0-3-0-0-----0---0-3-0-----0---0-|-3-0-0-----0---0-3-0-----0---0-3-0-0-|
|-------------------------------------|-------------------------------------|


  E E E E E E E E E E E E E E E E E E   E E E E E E E E E E E E E E E E E E
|-------------------------------------|-------------------------------------|
|-5-7-----------5-7-------------5-7---|---------5-7-------------5-7---------|
|-----0---0-3-0-----0---0-3-0-0-----0-|---0-3-0-----0---0-3-0-0-----0---0-3-|
|-------------------------------------|-------------------------------------|


                   Q=122
 6/4                 4/4
                      |-3-| |-3-| |-3-| |-3-|   |-3-| |-3-| |-3-| |-3-|
  E E E E W           E E E E E E E E E E E E   E E E E E E E E E E E E
|------------------||-------------------------|--------------------------|
|---5-7------------||-------5-------------5-7-|-------------------7------|
|-0-----0----------||-3-0-0---0-0-0-0-3-0-----|-0-0-0-3-0-0-0-3-0---0-0--|
|------------------||-------------------------|--------------------------|


  |-3-| |-3-| |-3-| |-3-|   |-3-| |-3-| |-3-| |-3-|
  E E E E E E E E E E E E   E E E E E E E E E E E E
|-------------------------|-------------------------|
|-------5-------------5-7-|-------------5-7---------|
|-3-0-0---0-0-0-0-3-0-----|-0-0-0-3-0-0-----0-3-0-0-|
|-------------------------|-------------------------|


  |-3-| |-3-| |-3-| |-3-|   |-3-| |-3-| |-3-| |-3-|
  E E E E E E E E E E E E   E E E E E E E E E E E E
|-------------------------|-------------------------|
|-------5-------------5-7-|-------------------7-----|
|-3-0-0---0-0-0-0-3-0-----|-0-0-0-3-0-0-0-3-0---0-0-|
|-------------------------|-------------------------|


  |-3-| |-3-| |-3-| |-3-|   |-3-| |-3-| |-3-| |-3-|
  E E E E E E E E E E E E   E E E E E E E E E E E E
|-------------------------|-------------------------|
|-------5-------------5-7-|-------------5-7---------|
|-3-0-0---0-0-0-0-3-0-----|-0-0-0-3-0-0-----0-3-0-0-|
|-------------------------|-------------------------|


  |3| |3| |3|  |-3-|   |-3-| |-3-| |3| |3|   |-3-| |-3-|
  Q E Q E Q E  E E E   E E E E E E Q E Q E   Q Q Q Q Q Q
|--------------------|---------------------|---5---5------|
|-7---5---7---10-7---|-5-7---------7---5---|-3---3---3-3--|
|---0---0---0------0-|-----0-5-7-0---0---0-|--------------|
|--------------------|---------------------|--------------|


  |-3-| |-3-|   |3| |3| |3|  |-3-|   |-3-| |-3-| |3| |3|
  Q Q Q Q Q Q   Q E Q E Q E  E E E   E E E E E E Q E Q E
|---7-----5---|--------------------|----------------------|
|-0---0-3---3-|-7---5---7---10-7---|-5-7---------7---5----|
|-------------|---0---0---0------0-|-----0-5-7-0---0---0--|
|-------------|--------------------|----------------------|


  |-3-| |-3-|   |-3-| |-3-|
  Q Q Q Q Q Q   Q Q Q Q Q Q
|---5---5-----|---7-----5---||
|-3---3---3-3-|-0---0-3---3-||
|-------------|-------------||
|-------------|-------------||


 Outro
  Q=180
 9/4
  Q  E Q  E Q  E  E E E E E E E E E   Q  E Q  E Q  E  E E E E E E E E E
|-----------------------------------|------------------------------------|
|-7----5----7----10-7---5-7---------|-7----5----7----10-7---5-7----------|
|----0----0----0------0-----0-5-7-0-|----0----0----0------0-----0-5-7-0--|
|-----------------------------------|------------------------------------|


  Q  E Q  E Q  E  E E E E E E E E E   Q  E Q  E Q  E  E E E E E E E E E
|-----------------------------------|-----------------------------------|
|-7----5----7----10-7---5-7---------|-7----5----7----10-7---5-7---------|
|----0----0----0------0-----0-5-7-0-|----0----0----0------0-----0-5-7-0-|
|-----------------------------------|-----------------------------------|


  Q  E Q  E Q  E  E E E E E E E E E   Q  E Q  E Q  E  E E E E E E E E E
|-----------------------------------|-----------------------------------|
|-7----5----7----10-7---5-7---------|-7----5----7----10-7---5-7---------|
|----0----0----0------0-----0-5-7-0-|----0----0----0------0-----0-5-7-0-|
|-----------------------------------|-----------------------------------|


  Q  E Q  E Q  E  E E E E E E E E E
|-----------------------------------|
|-7----5----7----10-7---5-7---------|
|----0----0----0------0-----0-5-7-0-|
|-----------------------------------|


  Q  E Q  E Q  E  E  E  E  E  E  E  E  E  E
|-------------------------------------------|
|-7----5----7----10-10-10-10-10-10-10-10-10-|
|----0----0----0----------------------------|
|-------------------------------------------|


 6/4
  E E E E E E E E E E E E   E E E E E E  E  E  E  E  E  E
|-------------------------|-------------------------------|
|-------------------------|-------------------------------|
|-------------------------|-------------------------------|
|-9-9-9-9-9-9-0-0-0-0-0-0-|-9-9-9-9-9-9-12-12-12-12-12-12-|


  E E E E E E E E E E E E   E E E E E E  E  E  E  E  E  E
|-------------------------|-------------------------------|
|-------------------------|-------------------------------|
|-------------------------|-------------------------------|
|-9-9-9-9-9-9-0-0-0-0-0-0-|-9-9-9-9-9-9-12-12-12-12-12-12-|


                                                   Q=60
                                                  2/4
                                        >
  E E E E E E E E E E E E   E E E E E E H.         +H
|-------------------------|---------------------||--------||
|-------------------------|---------------------||--------||
|-------------------------|---------------------||--------||
|-5-5-5-5-5-5-2-2-2-2-2-2-|-5-5-5-5-5-5-0-------||-(0)----||


 4/4
  H.      Q    H    +E   E  Q    H    +E   E Q
|------------|-----------------|----------------|
|------------|-----------------|----------------|
|---------8--|-5----(5)----12--|-5----(5)----8--|
|------------|----------/3-----|----------/3----|


              H=H           Q=100   Q=60
                                   3/4
  H    +E   E Q    +H.      +Q      E E E Q.
|----------------|---------------||-----9------|
|----------------|---------------||------------|
|-5----(5)----8--|-(8)------(8)--||-0-0---0----|
|----------/3----|---------------||------------|


  Q=45
 8/4
                    |-3-| |-3-| |-3-|
   Q  Q  a  Q  Q  a E E E E E E E E E +Q
|-----------------------------------9-(9)--|
|-12--9--9h10--7--7h9---9-5---5-7----------|
|---------------------0-----0-----0--------|
|------------------------------------------|


                    |-3-| |-3-| |-3-|
   Q  Q  a  Q  Q  a E E E E E E E E E +Q
|-----------------------------------9-(9)--|
|-12--9--9h10--7--7h9---9-5---5-7----------|
|---------------------0-----0-----0--------|
|------------------------------------------|


                    |-3-| |-3-| |-3-|
   Q  Q  a  Q  Q  a E E E E E E E E E +Q
|-----------------------------------9-(9)--|
|-12--9--9h10--7--7h9---9-5---5-7----------|
|---------------------0-----0-----0--------|
|------------------------------------------|


                    |-3-| |-3-| |-3-|
   Q  Q  a  Q  Q  a E E E E E E E E E +Q
|-----------------------------------9-(9)---|
|-12--9--9h10--7--7h9---9-5---5-7-----------|
|---------------------0-----0-----0---------|
|-------------------------------------------|


                    |-3-| |-3-| |-3-|
   Q  Q  a  Q  Q  a E E E E E E E E E +Q
|-----------------------------------9-(9)--|
|-12--9--9h10--7--7h9---9-5---5-7----------|
|---------------------0-----0-----0--------|
|------------------------------------------|


  H.=H                       Q=40
   Q  Q   Q  Q  Q  Q  H      +W  W
|--------------------------|----------|
|-12--9--10--7--9--5--7----|-(7)------|
|--------------------------|----------|
|--------------------------|----------|



Duration Legend
---------------
W - whole; H - half; Q - quarter; E - 8th; S - 16th; T - 32nd; X - 64th; a - acciaccatura
+ - note tied to previous; . - note dotted; .. - note double dotted
Uncapitalized letters represent notes that are staccato (1/2 duration)
Irregular groupings are notated above the duration line
Duration letters will always appear directly above the note/fret number it represents the
duration for.  Duration letters with no fret number below them represent rests.  Multi-
bar rests are notated in the form Wxn, where n is the number of bars to rest for.  Low
melody durations appear below the staff

Tablature Legend
----------------
 h   - hammer-on
 p   - pull-off
 b   - bend
 pb  - pre-bend
 r   - bend release (if no number after the r, then release immediately)
 /\  - slide into or out of (from/to "nowhere")
 s   - legato slide
 S   - shift slide
 - natural harmonic
[n]  - artificial harmonic
n(n) - tapped harmonic
 ~   - vibrato
 tr  - trill
 T   - tap
 TP  - trem. picking
 PM  - palm muting
\n/  - tremolo bar dip; n = amount to dip
 \n  - tremolo bar down
 n/  - tremolo bar up
/n\  - tremolo bar inverted dip
 =   - hold bend; also acts as connecting device for hammers/pulls
 <> - volume swell (louder/softer)
 x   - on rhythm slash represents muted slash
 o   - on rhythm slash represents single note slash

Misc Legend
-----------
 |  - bar
||  - double bar
||o - repeat start
o|| - repeat end
*|  - double bar (ending)
 :  - bar (freetime)
 $  - Segno
 &  - Coda
Tempo markers -  = BPM(8/16=s8/s16), where s8 = swing 8ths, s16 = swing 16ths


            
            
Suggest correction
Creating personal tab
Creating personal tab
You can edit any tab online and save it as your Personal.

You can edit, replace or remove any tab part or add personal notes – all changes will be seen only by you.

Personal tabs can be accessed anytime from any device, even offline.
Learn more »
comments
print report bad tab
1 comment total.
0 reply
beynon.edward 10 Oct 30, 2017 04:35 PM

Instead of 9/10 on the d string, it's 4/5 on the g string and 7 on the d string played together as a chord and the open a.

g|-5---5---5---...
d|-7---7---7---...
a|---0---0---0-...
e|-------------...

g|-4---4---4---...
d|-7---7---7---...
a|---0---0---0-...
e|-------------...

guest
You may want to rate the tab now too:
select rating
Wanna post a correction for this tab? Suggest correction