Oops, an error
Loading. Please wait.

10000 Days Wings Part 2 tab

version 1
version 1

Whole song

Interactive

by Tool
50,275 views 78 this week
5 commentsread comments
1 2 3 4 5
x 27
add to favorites
×
Save as Personal and add changes to this tab that will be seen only by you. Learn more ›
×
You can save this tab as Personal to edit and correct it or add notes. All changes will be seen only by you. Learn more »
launch autoscroll
font size
0
reset
how to read this tab
guitar tuner
edit
Autoscroll
slow
fast
+/-
esc
set tempo
stop
Author
Difficulty
intermediate
Song:   10,000 Days pt. 2
Band:   Tool
Album   10,000 Days
Tabber: Jake-HK

tuning: Dadgbe

read comments for fixes


 ~1:37      1:48
e|---------|-----------------------------------------------------------|
B|---------|-----------------------------------------------------------|
G|---------|-----------------------------------------------------------|
D|-7-------|-10--9--10--9---7----10--9--10--9--7----10--9--10--9---7---|
A|---------|-----------------------------------------------------------|
E|---------|-----------------------------------------------------------|
 trem. pick| Volume Swells---------------------------------------------|  

2:25
e|--------------------------------------------------------|
B|--------------------------------------------------------|
G|--------------------------------------------------------|
D|-10--9--10--9--5--5-7~~~~---10--9--10--9--5--5-7~~~-----|
A|--------------------------------------------------------|
E|--------------------------------------------------------|(x3)
"ignorant..."  Volume Swells---------------------|

e|---------------------------------|
B|---------------------------------|
G|---------------7--7\9~~~~~~------|
D|-10--9--10--9--------------------|
A|---------------------------------|
E|---------------------------------|
"this little..." Volume Swells---|

 3:15
e|------------------------|-------------------------|
B|-5-----5-----5-----5----|-5-----5-----5-----5-----| <- same tempo as previous section
G|---5-----5-----5-----5--|-------------------------|
D|-----7-----7-----7-----7|-----7-----7-----7-----7-|
A|------------------------|-------------------------| 
E|------------------------|-------------------------|
               4 times                     2 times

e|------------------------|-------------------------|
B|-5-----5-----5-----5----|-5-----5-----5-----5-----| 
G|---5-----5-----5-----5--|-------------------------|
D|-----7-----7-----7-----7|-----7-----7-----7-----7-|
A|------------------------|-------------------------| 
E|------------------------|-------------------------|
               4 times                     2 times

 3:40
e|------------------------|-----------------------------------------------------------------------------|
B|-5-----5-----5-----5----|-6-----8--6----6-5-----5--8--5-----5-----5-----5-----5-----5-----5-----5-----| 
G|---5-----5-----5-----5--|---5--------5-------7--------------------------------------------------------|
D|-----7-----7-----7-----7|-----7--------7-----------------7-----7-----7-----7-----7-----7-----7-----7--|
A|------------------------|-----------------------------------------------------------------------------|
E|------------------------|-----------------------------------------------------------------------------|(x2)
                2 times

 4:04
e|------------------------|----------------------------|
B|-5-----5-----5-----5----|-6-----8--6----6-5-----5--8-| 
G|---5-----5-----5-----5--|---5--------5-------7-------|
D|-----7-----7-----7-----7|-----7--------7-------------|
A|------------------------|----------------------------| 
E|------------------------|----------------------------|
                2 times
 
e|------------------------|-----------------------------------------------------------------------------|
B|-5-----5-----5-----5----|-6-----8--6----6-5-----5--8--5-----5-----5-----5-----5-----5-----5-----5-----| 
G|---5-----5-----5-----5--|---5--------5-------7--------------------------------------------------------|
D|-----7-----7-----7-----7|-----7--------7-----------------7-----7-----7-----7-----7-----7-----7-----7--|
A|------------------------|-----------------------------------------------------------------------------| 
E|------------------------|-----------------------------------------------------------------------------|
                2 times  

e|-------------------------------------------------|
B|-5-----5-----5-----5-----8-----5-----5-----5-----|
G|-------------------------------------------------|
D|-----7-----7-----7-----7-----7-----7-----7-----7-|
A|-------------------------------------------------|
E|-------------------------------------------------|

e|------------------------|-----------------------------------------------------------------------------|
B|-5-----5-----5-----5----|-6-----8--6----6-5-----5--8--5-----5-----5-----5-----5-----5-----5-----5-----| 
G|---5-----5-----5-----5--|---5--------5-------7--------------------------------------------------------|
D|-----7-----7-----7-----7|-----7--------7-----------------7-----7-----7-----7-----7-----7-----7-----7--|
A|------------------------|-----------------------------------------------------------------------------| 
E|------------------------|-----------------------------------------------------------------------------|
                2 times                                                          "ten thousand.."

e|-------------------------------------------------|
B|-5-----5-----5-----5-----8-----5-----8-----5-----|
G|-------------------------------------------------|
D|-----7-----7-----7-----7-----7-----7-----7-----7-|
A|-------------------------------------------------|
E|-------------------------------------------------|

 4:45
e|------------------------|-------------------------|
B|-5-----5-----5-----5----|-5-----5-----5-----5-----| 
G|---5-----5-----5-----5--|-------------------------|
D|-----7-----7-----7-----7|-----7-----7-----7-----7-|
A|------------------------|-------------------------|
E|------------------------|-------------------------|(x2)
               4 times                     2 times

e|------------------------|-----------------------------------------------------------------------------|
B|-5-----5-----5-----5----|-6-----8--6----6-5-----5--8--5-----5-----5-----5-----5-----5-----5-----5-----| 
G|---5-----5-----5-----5--|---5--------5-------7--------------------------------------------------------|
D|-----7-----7-----7-----7|-----7--------7-----------------7-----7-----7-----7-----7-----7-----7-----7--|
A|------------------------|-----------------------------------------------------------------------------| 
E|------------------------|-----------------------------------------------------------------------------|(x2)
               2 times

        5:38
e|-----|-------------------------------------------------|-------------------------|
B|-----|-------------------------------------------------|-------------------------|
G|-----|-5-----5-----5-----5-----4-----4-----4-----4-----|-------------------------|
D|-----|---7-7---7-7---7-7---7-7---7-7---7-7---7-7---7-7-|-7-----5-----7-----7-----|
A|-(0)-|-------------------------------------------------|---0-0---0-0---0-0---0-0-| 
E|-----|-------------------------------------------------|-------------------------|
Dist.                                      2 times       let g string ring | 2 times
vol. swell

e|-------------------------------------------------|------------------------------------------------|
B|-------------------------------------------------|------------------------------------------------|
G|-5-----5-----5-----5-----4-----4-----4-----4-----|------------------------------------------------|
D|---7-7---7-7---7-7---7-7---7-7---7-7---7-7---7-7-|-7-----5-----7-----7-----7-----5-----7-----8----|
A|-------------------------------------------------|---0-0---0-0---0-0---0-0---0-0---0-0---0-0---0-0| 
E|-------------------------------------------------|------------------------------------------------|
                                     2 times       let d string ring---------------------------| 

 6:02
e|--------------------------------------------------|
B|--------------------------------------------------|
G|-5-----5-----5-----5-----4-----4-----4-----4------|
D|---7-7---7-7---7-7---7-7---7-7---7-7---7-7---7-7--|
A|--------------------------------------------------| 
E|--------------------------------------------------|

e|--------------------------------------------------|--------------------------------------------|
B|--------------------------------------------------|-------------0---------------------0--------|
G|-5-----5-----5-----5-----7-----7-----4-----4------|--------------------------------------------|
D|---7-7---7-7---7-7---7-7---7-7---7-7---7-7---7-7--|-7-----5---------5-----7-----5--------5-----|
A|--------------------------------------------------|---0-0---0-0-------0-0---0-0---0-0------0-0-|
E|--------------------------------------------------|--------------------------------------------|

e|--------------------------------------------------|
B|--------------------------------------------------|
G|-5-----5-----5-----5-----4-----4-----4-----4------|
D|---7-7---7-7---7-7---7-7---7-7---7-7---7-7---7-7--|
A|--------------------------------------------------| 
E|--------------------------------------------------|

e|------------------------------------------------------------------------|
B|------------------------------------------------------------------------|
G|-5-----5-----5-----5-----7-----7-----4----------------------------------|
D|---7-7---7-7---7-7---7-7---7-7---7-7-----7-7-7-7-7-7-7-7-7~~~~~~~~~-----|
A|------------------------------------------------------------------------|
E|------------------------------------------------------------------------|
                                         *wah-wah


 6:27  Solo outline, w/wah & delay
e|------------------------------------------------------------------------------------------------------|
B|------------------------------------------------------------------------------------------------------|
G|---------------------------------------------------9\\14~~~~12~~~~14~~15~~~17~~~~14h15p14-15p14-15p14~|
D|-\10~~~~~~~~--10//0-----\10~-10\15~~-14~~~~~~-10\0----------------------------------------------------|
A|------------------------------------------------------------------------------------------------------|
E|------------------------------------------------------------------------------------------------------|

e|---------------------------------------------------------------------|
B|---------------------------------------------------------------------|
G|---------------------------------------------------------------------|
D|-(14)-------(9)---9h10~~~~~(9)9h10~~~~9h10p9-10p9~~~~~~~~~~~~~~~~~~--|
A|---------------------------------------------------------------------|
E|---------------------------------------------------------------------|
 (trem pick)

e|--------------------------------------------------------------|
B|--------------------------------------------------------------|
G|--------------------------------------------------------------|
D|-\10~~~-10p9~~~-10~~~~-10p9~~~~~-5--5h7-5h7-5h7-5h7-5h7p5h7---|
A|--------------------------------------------------------------|
E|--------------------------------------------------------------|(x2)

e|---------------------------------------------------------------|
B|---------------------------------------------------------------|
G|--------------------------------7--7h9-7h9-7h9-7h9-7h9p7h9-----|
D|-\10~~~-10p9~~~-10~~~~-10p9~~~~~-------------------------------|
A|---------------------------------------------------------------|
E|---------------------------------------------------------------|

e|--------------------------------------------------------------------|
B|--------------------------------------------------------------------|
G|--------------------------------7--7h9-7h9-7h9-7h9-7h9-7h9-7h9~^----|
D|-\10~~~-10p9~~~-10~~~~-10p9~~~~~------------------------------------|
A|--------------------------------------------------------------------|
E|--------------------------------------------------------------------|


 8:21
e|--------------------------------|
B|--------------------------------|
G|--------------------------------|
D|-7---5---7---10---3-----0---3---|
A|-7---5---7---10---3-----0---3---|
E|-7---5---7---10---3-----0---3---|
Heavy
let ring

e|----------------------------------------------------------------------------------------------|
B|-10-101010-8--8-8-8--10-101010-13--13-13-13---18--18--18--18--18--18--15--15--15--13--13--13--|
G|-9--9-9-9--7--7-7-7--9--9-9-9--12--12-12-12---17--17--17--17--17--17--14--14--14--12--12--12--|
D|-7--7-7-7--5--5-5-5--7--7-7-7--10--10-10-10---15--15--15--15--15--15--12--12--12--10--10--10--|
A|----------------------------------------------------------------------------------------------|
E|----------------------------------------------------------------------------------------------|

e|---------------------------------------------------------------------------------|
B|-10-101010-8--8-8-8--10-101010-13--13-13-13--------------------------------------|
G|-9--9-9-9--7--7-7-7--9--9-9-9--12--12-12-12---5--5--5--5--5--5-----------7--7--7-|
D|-7--7-7-7--5--5-5-5--7--7-7-7--10--10-10-10---3--3--3--3--3--3--0--0--0--5--5--5-|
A|----------------------------------------------3--3--3--3--3--3--0--0--0--5--5--5-|
E|----------------------------------------------3--3--3--3--3--3--0--0--0--5--5--5-|


 8:51
e|--------------------------------------|
B|--------------------------------------|
G|--------------------------------------|
D|-7--5--7~(7)\10/7p0-h5h7p0--0h2p0-----|
A|-7--5--7~(7)\10/7p0-h5h7p0--0h2p0-----|
E|-7--5--7~(7)\10/7p0-h5h7p0--0h2p0-----|(x4)
          
e|-------------------------------------------|
B|-------------------------------------------|
G|-------------------------------------------|
D|-------------------------------------------|
A|-------------------------------------------|
E|-7-7-7-5-5-5-7-7-7(7)\10/7p0-h5h7p0-0h2p0--|
pm----------------------------------------

e|------------------------------------------------------------------------------------|
B|------------------------------------------------------------------------------------|
G|------------------------------------------------------------------------------------|
D|------------------------------------------------------------------------------------|
A|-----------------------------10p7p0-0h5h7------------------------------8p5p0-10p7p0-|
E|-7-7-7-5-5-5-7-7-7(7)\10/7p0---------------7-7-7-5-5-5-7-7-7(7)\10/7p0--------------|
pm---------------------------               ---------------------------

e|-----------------------------------------------|
B|-----------------------------------------------|
G|-----------------------------------------------|
D|-----------------------------------------------|
A|-----------------------------------------------|
E|-7-7-7-5-5-5-7-7-7(7)\10/7p0-10-10-10-10-10-10-|

e|----------------------------------------------------|
B|----------------------------------------------------|
G|----------------------------------------------------|
D|-9-9-9-9-9-9-0-0-0-0-0-0-9-9-9-9-9-9\12-12-12-12-12-|
A|-9-9-9-9-9-9-0-0-0-0-0-0-9-9-9-9-9-9\12-12-12-12-12-|
E|-9-9-9-9-9-9-0-0-0-0-0-0-9-9-9-9-9-9\12-12-12-12-12-|(x2)

e|---------------------------------------|
B|---------------------------------------|
G|---------------------------------------|
D|-5-5-5-5-5-5-2-2-2-2-2-2-5-5-5-5-5-5-0-|
A|-5-5-5-5-5-5-2-2-2-2-2-2-5-5-5-5-5-5-0-|
E|-5-5-5-5-5-5-2-2-2-2-2-2-5-5-5-5-5-5-0-|

 9:29
e|--------------------------------------------|
B|--------------------------------------------|
G|--------------------------------------------|
D|--------------------------------------3-----|
A|-0-----7-----0-----7-----0-----7------3-----|
E|---0-0---0-0---0-0---0-0---0-0---0-0--3-----|(x3)
let A string ring                      -rake low to high

e|------------------------------------------------------|
B|------------------------------------------------------|
G|------------------------------------------------------|
D|--------------------------------------3\\4\\5\\6\\7---|
A|-0-----7-----0-----7-----0-----7------3\\4\\5\\6\\7---|
E|---0-0---0-0---0-0---0-0---0-0---0-0--3\\4\\5\\6\\7---|

 9:58
e|------------------------------------|
B|------------------------------------|
G|------------------------------------|
D|---5--------10-------12-15-12-14~~--|
A|-3---(3)\\8----8\(12)---------------|
E|------------------------------------|(x5)

e|-----------------------------------------------------------|
B|-----------------------------------------------------------|
G|-----------------------------------------------------------|
D|---5--------10-------12-15-12-14~~~-10---12---5---7~~~~~~--|
A|-3---(3)\\8----8\(12)--------------------------------------|End guitar
E|-----------------------------------------------------------|



************************************

| ~    Vibrato
| \    Slide down
| (n)  Ghost note
| h    Hammer-on
| p    Pull-off
| /    Slide up

************************************

            
            
Suggest correction
Creating personal tab
Creating personal tab
You can edit any tab online and save it as your Personal.

You can edit, replace or remove any tab part or add personal notes – all changes will be seen only by you.

Personal tabs can be accessed anytime from any device, even offline.
Learn more »
comments
print report bad tab
5 comments total. Showing first comments.
+2 reply
Ribica 103 Mar 24, 2007 04:31 AM

exellent tab, it's a bit long, but so is the song. 4 star

+1 reply
Blinder 60 Aug 02, 2008 02:07 AM

brilliant!!!! both Tool, and this guy tabbed their awsome song!!!!!!!!!!!!!!

0 reply
maiden america 10 Dec 18, 2008 02:27 PM

sweet!!! this tab is great

guest
You may want to rate the tab now too:
select rating
Wanna post a correction for this tab? Suggest correction