Oops, an error
Loading. Please wait.

Disposition bass

version 2
version 2

Whole song

Interactive

by Tool
5,056 views 6 this week
no commentswrite comment
1 2 3 4 5
x 4
add to favorites
×
Save as Personal and add changes to this tab that will be seen only by you. Learn more ›
×
You can save this tab as Personal to edit and correct it or add notes. All changes will be seen only by you. Learn more »
launch autoscroll
font size
0
reset
guitar tuner
edit
Autoscroll
slow
fast
+/-
esc
set tempo
stop
disposition

by tool

tabbed my matty rodriguez
_______________________________________

tuning - drop D
      with digital delay:

|-----------------------<5>----------|---------------------------------| 7x
|---<5>--------------------------0---|---<5>-----<7>--------16---------|
|-7---------7-<4>-----7--------5-----|-7-------7------7//14----14------|
|----------------------------------0-|---------------------------------|

|---7--9--9--4-4-|  4x
|---5--7--7--2-2-|
|----------------|
|----------------|

with wammy
|-----------------| 14x
|----5--7---7//---|
|-----------------|
|-----------------|

|---7--9--9--4-4-|  4x
|---5--7--7--2-2-|
|----------------|
|----------------|

with wammy
|-----------------| 12x
|----5--7---7//---|
|-----------------|
|-----------------|

|-----------------------<5>----------|---------------------------------| 4x
|---<5>--------------------------0---|---<5>-----<7>--------16---------|
|-7---------7-<4>-----7--------5-----|-7-------7------7//14----14------|
|----------------------------------0-|---------------------------------|

|---------------------------------|
|---------------------------------|
|---14~~~~14~~~~~14~~~~~14~~~~~---|
|---------------------------------|

            
            
Suggest correction
Creating personal tab
Creating personal tab
You can edit any tab online and save it as your Personal.

You can edit, replace or remove any tab part or add personal notes – all changes will be seen only by you.

Personal tabs can be accessed anytime from any device, even offline.
Learn more »
comments
print report bad tab
guest
Wanna post a correction for this tab? Suggest correction