Oops, an error
Loading. Please wait.
We have an official Eon Blue Apocalypse tab made by UG professional guitarists. Check out the tab »
×
by Tool
1,041 views 1 this week
2 commentsread comments
1 2 3 4 5
1 last vote to show rating
add to favorites
×
Save as Personal and add changes to this tab that will be seen only by you. Learn more ›
×
You can save this tab as Personal to edit and correct it or add notes. All changes will be seen only by you. Learn more »
launch autoscroll
font size
0
reset
guitar tuner
edit
Autoscroll
slow
fast
+/-
esc
set tempo
stop
Author
Difficulty
Band: Tool
Title: Eon Blue Apocalypse
Album: Lateralus (2001)
Bass: Justin Chancellor
Tabbed by: Stefan Langkabel

You have to listen to the song to get the rhythm, but it´s very easy ;-)
Firstly the guitar builds up, then the bass begins to play.
Play quiet! It begins at ...

   0:11                  0:17
G|-5--7------------------5--7----------------------|
D|-----------------------------3--5----------------|
A|-------------------------------------------------|
D|-------------------------------------------------|

   0:23/0:24                 0:30
G|-10----5--7----------------5--7----------------------|
D|---------------------------------3-5--0--------------|
A|-----------------------------------------------------|
D|--------------------------------------0--------------|

The guitar plays some notes. Then the bass plays a "d".
It´s played at 0:47   ( play with a pick )

G|---------------|
D|-0-------------|
A|---------------|
D|---------------|

Again the guitar plays some notes ( it sounds beautiful! ),
then bass and guitar together... It starts at 0:58

G|---------7-----    You can also  G|---------7----|
D|-8--7----0-----    play this:    D|-8--7----0----|
A|---------5-----                  A|--------------|
D|---------------                  D|--------------|

I think it´s very easy to play and sounds great, if you play it
together with a guitar.

            
            
Suggest correction
Creating personal tab
Creating personal tab
You can edit any tab online and save it as your Personal.

You can edit, replace or remove any tab part or add personal notes – all changes will be seen only by you.

Personal tabs can be accessed anytime from any device, even offline.
Learn more »
Give kudos to tab author, rate the tab!
1 2 3 4 5
comments
print report bad tab
2 comments total.
0 reply
s0berito 104 Oct 04, 2007 07:59 AM

this song doesn't have any bass!

0 reply
robotfrom94 314 Jun 05, 2014 11:31 AM

that doesn't mean you can't play it on bass

guest
You may want to rate the tab now too:
select rating
Wanna post a correction for this tab? Suggest correction