Oops, an error
Loading. Please wait.

Forty-Six And 2 bass

version 1
version 1

Whole song

Interactive

by Tool
92,390 views 273 this week
4 commentsread comments
1 2 3 4 5
x 23
add to favorites
×
Save as Personal and add changes to this tab that will be seen only by you. Learn more ›
×
You can save this tab as Personal to edit and correct it or add notes. All changes will be seen only by you. Learn more »
launch autoscroll
font size
0
reset
guitar tuner
edit
Autoscroll
slow
fast
+/-
esc
set tempo
stop
(0:00)

With Flanger....some people say chorus.....whatever you think or prefer.

G|-----7----5h7---8p7---5h7---3h5-      G|-----7----5h7---8p7---12p11---8p7-|
D|--0-----0-----0-----0-----0----- x3   D|---0----0-----0-----0-------0-----|
A|--------------------------------      A|----------------------------------|
D|--------------------------------      D|----------------------------------|

|________________________________________________________________________|

                                  x3


(0:36)                         x4
G|------------------------------|--------------|
D|---12--10---13p12---0---------|----10h12-----|
A|------------------------------|--------------|
D|------------------------------|--------------|


(0:42)
G|-----7----5h7---8p7---5h7---3h5-      G|-----7----5h7---8p7---12p11---8p7-|
D|--0-----0-----0-----0-----0----- x3   D|---0----0-----0-----0-------0-----|
A|--------------------------------      A|----------------------------------|
D|--------------------------------      D|----------------------------------|

|________________________________________________________________________|

                                   x5

(1:43)
G|-----7----5h7---8p7---5h7---3h5-     G|----7----7---7---7-|
D|--0-----0-----0-----0------0---- x3  D|--0----0---0---0---|
A|--------------------------------     A|-------------------|
D|--------------------------------     D|-------------------|


(1:55)
G|------------------------------------------------|
D|------------------------------------------------| x4
A|------------------------------------------------|
D|--0--12--0--10h12--0--13p12--0--10h12--0--8h10--|


(2:07)
G|------------------------------------------------------------------|
D|------------------------------------------------------------------| x3
A|------5----------5----------5----------5-----------5--------------|
D|-x----0-----x----0-----x----0-----x----0-----x----0---------------|


(2:16)
G|--------------|
D|--------------|
A|-5--5--5--5---|
D|-0--0--0--0---|


(2:19)
G|-------------------------|--------------------------|
D|-------------------------|--------------------------| x2
A|-------5----------5--5-5-|--------5-----3-----------|
D|--0--0----0---0-0--------|--0--0-----3----3--0-5h3--|


(2:31)
G|------------------------------------------------|
D|------------------------------------------------| x4
A|------------------------------------------------|
D|--0--12--0--10h12--0--13p12--0--10h12--0--8h10--|


(2:43)I'm not very sure on this part, but all the others are similar
G|----7-5h7-8-7-----5h7----7---|----5-5----5------5-7h8---5---|---7-7----7--------7--7---7-----|
D|--0------------0-------0---0-|--3------3---3----------3---3-|-5------5----5----------5---5---|
A|-----------------------------|------------------------------|--------------------------------|
D|-----------------------------|------------------------------|--------------------------------|
                              (1st)
G|----7-------7-------7-------7-----|  (After this go back up....and do again)
D|-0------0-0-----0-0-----0-0----0--|
A|----------------------------------|
D|----------------------------------|

                        (2nd)
G|----7----7----7-7---7-----7-|  (End with this one on the 2nd time)
D|-0-----0----0-----0-----0---|
A|----------------------------|
D|----------------------------|


(3:06)
G|------------------------------------------------|
D|------------------------------------------------| x4
A|------------------------------------------------|
D|--0--12--0--10h12--0--13h12--0--10h12--0--8h10--|


(3:18)
G|-------------------------------------------------------------|
D|-------------------------------------------------------------| x3
A|------5----------5----------5----------5----------5----------|
D|-x----0-----x----0-----x----0-----x----0-----x----0----------|


(3:27) (In timing w/ drums)
G|-------------|
D|-------------|
A|-5--5--5--5--|
D|-0--0--0--0--|


(3:30)
G|----------------------------------|
D|----------------------------------| x8
A|----------------------------------|
D|--5h7-0-0-3h5-0-5h7-0-3h5-5h7-0-0-|


(3:53)
G|---------------------------------|
D|---------------------------------|
A|------------------------3-3-3h5--|
D|-0--0-0--10h12-\-3--3------------|


G|--------------------------     G|--------------------------------|
D|--12--0--10--0--13h12--0-- x7  D|--12--0--10--0--13h12--0--12--0-|
A|--------------------------     A|--------------------------------|
D|--------------------------     D|--------------------------------|

|______________________________________________________________|

                              x2

(4:27)
G|--------------------------      G|--------------------------------|
D|--12--0--10--0--13h12--0-- x11  D|--12--0--10--0--13h12--0--12--0-|
A|--------------------------      A|--------------------------------|
D|--------------------------      D|--------------------------------|


(4:44)
G|--------------------------|
D|--------------------------| x16
A|--------------------------|
D|--12--0--10--0--13h12--0--|


(5:04)

      ...see my shadow               ...stretching up
G|------------------------|-------------------------|
D|------------------------|-------------------------|
A|-5--5--5--5--5--5--5----|-8--8--8--8--8--8--8-----|
D|-0--0--0--0--0--0--0----|-8--8--8--8--8--8--8-----|

        ....soften this old               ....hoping i can
G|------------------------------|-------------------------|
D|------------------------------|-------------------------|
A|-12--12--12--12--12--12--12---|--3--3--3--3--3-/-5--5---|
D|-12--12--12--12--12--12--12---|--3--3--3--3--3-/-5--5---|

      ....step into my              ....coming out
G|----------------------|-------------------------|
D|----------------------|-------------------------|
A|-5--5--5--5--5--5--5--|-8--8--8--8--8--8--8-----|
D|-0--0--0--0--0--0--0--|-8--8--8--8--8--8--8-----|

      ....step into the                   .....46&2 is just
G|------------------------------|-------------------------|
D|------------------------------|-------------------------|
A|-12--12--12--12--12--12--12---|--3--3--3--3--3-/-5--5---|
D|-12--12--12--12--12--12--12---|--3--3--3--3--3-/-5--5---|


(5:26)
   this is Right as well...notice the small difference at the end.
G|-------------------------|--------------------------|
D|-------------------------|--------------------------|
A|-------5----------5--5-5-|--------5-----3-----------|
D|--0--0----0---0-0--------|--0--0-----3----3--0-5h3--|

G|------------------------------------------------------------|
D|---------------------------------------------3--------------|
A|-------5----------5--5-5------------------------------------|
D|--0--0----0---0-0-----------12--10--13p12-------10--12---1--|


(5:39) (keep in timing with drums until guitar joins at 5:47)
G|-------------|
D|-------------| x6
A|-5--5-5--5-5-|
D|-0--0-0--0-0-|


(5:57)
G|---------|
D|---------|
A|-5--5-5--|
D|-0--0-0--|



************************************

| x  Dead note
| h  Hammer-on
| p  Pull-off
| /  Slide up
| \  Slide down

************************************

            
            
Suggest correction
Creating personal tab
Creating personal tab
You can edit any tab online and save it as your Personal.

You can edit, replace or remove any tab part or add personal notes – all changes will be seen only by you.

Personal tabs can be accessed anytime from any device, even offline.
Learn more »
comments
print report bad tab
4 comments total. Showing first comments. show 1 bad comment
+1 reply
harl91 373 Feb 23, 2006 04:46 PM

great tab, keep it up!

0 reply
Will-eh 221 Mar 04, 2006 05:23 AM

****ing eh man,:)
Will-eh

guest
You may want to rate the tab now too:
select rating
Wanna post a correction for this tab? Suggest correction