Oops, an error
Loading. Please wait.

Hooker With A Penis bass

version 1
version 1

Whole song

Interactive

by Tool
7,156 views 6 this week
2 commentsread comments
1 2 3 4 5
x 5
add to favorites
×
Save as Personal and add changes to this tab that will be seen only by you. Learn more ›
×
You can save this tab as Personal to edit and correct it or add notes. All changes will be seen only by you. Learn more »
launch autoscroll
font size
0
reset
guitar tuner
backing track
0:00
0:00
edit
Autoscroll
slow
fast
+/-
esc
set tempo
stop
Artist: Tool
Song: Hooker With A Penis
Tabbed by: Tobes  (flipsta101@hotmail.com)

*Notes*
This song is in dropped D tuning (as with most of Tool's songs), and uses a bit of a
grunge-distortion effect during the wicked little bass interlude. Play with fingerstyle -
you want a round, angry tone on this one. Enjoy.



Intro - no bass until 0:16		x4
G----------------------------------------
D----------------------------------------
A-3h5-5-3h5-5-3h5-5-3h5-5--3-3-(3)-------
D----------------------------------------

Fill					x4
G----------------------------------------
D-------3----------3---------------------
A-3-4-5----x-3-4-5----3-3-3-3------------
D----------------------------------------

Verse					x4
G-----------------------------------------
D-----------------------------------------
A-----------------------------------------
D--3-0-0-3---3-0-0-3---3-0-0-3---3-0-0-3--

Intro x4

Verse x2

Going into chorus											x2
G----------------------------------------------------------------------------
D----------------------------------------------------------------------------
A----------------------------------------------------------------------------
D-3-0-0-0-0-0-0-0-0-3-0-0-0-0-0-0-0-0-3-0-0-0-0-0-0-0-0-3-0-0-0-(3)-0-0-0-0--

Chorus
G--------------------------------------------------|-----------------------------------------
D--------------------------------------------------|-----------------------------------------
A-3-3---------------------------------3h5-5-3h5-5--|-(x)3-3----------------------------------
D-----5-5-3p0-0-0-(0)-3-3-5-5-3p0-0-0--------------|--------(x)5-5-3p0-0-0-(0)-3-3-5-5-3p0---

G----------------------------------
D*--------------------------------*
A*--------------------------------*
D--0-0-0-0-3p0-0-0-0-0-3p0-0-0-0---


Bass interlude
G----------------------------------------------------
D*---------------------------------------------------
A*---------------------------------------------------
D--3p0-0-3-x-x--10-10-10-9/---3p0-0-0-0-0--7-7-7-6\--

G----------------------------------------------------
D---------------------------------------------------*
A---------------------------------------------------*
D-3p0-0-0-0-0--10-10-10-9/---3p0-0-0-0-0--7-7-7-6\---


Resuming chorus
G------------------------------------------------------------------------------------------
D------------------------------------------------------------------------------------------
A------------------------------------------------------------------------------------------
D-3-0-0-0-0-0-0-0-0--3-0-0-0-0-0-0-0-0--3-0-0-0-0--3-0-0-0-0--3-0-0-0-0--3-0-0-0-0---------

Chorus x1 except 3rd bar

Going into bridge		   x4
G------------------------------------|---------|
D*----------------------------------*|---------|
A*----------------------------------*|-5--(5)--|
D--0-0-0-3--5-5-5-3--0-0-0-3--6-6-5--|---------|


Bridge
G-------------------------------------------------
D*-----------------------------------------------*
A*---------------------------------------3h5-3h5-*
D-7-7-0--7-6-6-6-0--6-5-5-5-0--5-3-3-3-0----------

G------------|------------------------------------------|---------|---------------------
D------------|------------------------------------------|--Pause--|*--------------------
A-----5-3h5--|------------------------------------------|---------|*--------------------
D-(0)--------|-7-7-0--7-6-6-6-0--6-3-0-0--5-0-0--6-0-0--|---------|--3-0-0-0-5-0-0-6-6--

                   x4     		              x6
G--------------------|-----------------------------------|-------
D-------------------*|*---------------------------------*|-------
A-------------------*|*---------------------------------*|------- <---- just go mental on open D
D-3-0-0-0-5-0-0-8-8--|--0-0-0-0-0-0-0-0-0-0-0-0-0-0-0-0--|--0-0--


Outro         "Shut up and..."      play this ANGRY
G----------------------------------------|--------------------------------------------
D----------------------------------------|*------------------------------------------*
A-5-------3h5-----------------3h5--------|*-5-------3h5-------6------------3-------3-*
D---0-3h5-----0-0-0--8-0--3h5-----0-0-0--|---0-3h5-----0-0-0----0-0-0-0-0---0-3h5-----

Intro x8

G---------
D---------
A-5-(5)\--
D---------


            
            
Suggest correction
Creating personal tab
Creating personal tab
You can edit any tab online and save it as your Personal.

You can edit, replace or remove any tab part or add personal notes – all changes will be seen only by you.

Personal tabs can be accessed anytime from any device, even offline.
Learn more »
comments
print report bad tab
2 comments total.
0 reply
s0berito 104 Jun 30, 2007 05:16 AM

Check out my tab on this here:
http://www.ultimate-guitar.com/tabs/t/tool/hooker_with_a_penis_ver2_btab.htm

0 reply
AnduNeedle 7,059 Jun 30, 2017 08:21 AM

The bass solo from 1:40 is like this:

G-------------------------------------------------
D-------------------------------------------------
A-------------3-2-2-2/--------------12-12-12-11\---
D-3p0-0-0-0-0----------12p0-0-0-0-0---------------

guest
Wanna post a correction for this tab? Suggest correction