Oops, an error
Loading. Please wait.

Jimmy tab

version 2
version 2

Whole song

Interactive

by Tool
20,133 views 63 this week
4 commentsread comments
1 2 3 4 5
x 11
add to favorites
×
Save as Personal and add changes to this tab that will be seen only by you. Learn more ›
×
You can save this tab as Personal to edit and correct it or add notes. All changes will be seen only by you. Learn more »
launch autoscroll
font size
0
reset
how to read this tab
guitar tuner
edit
Autoscroll
slow
fast
+/-
esc
set tempo
stop
Author
Artist: Tool
Song: Jimmy
Album: Ænema
Tuning:  D A D G B E(As Allways)


Legend
pm - palm mute
h - hammer on
p - pull off
\\ - slide down
// - slide up
~ - bend
~~~ - vibrato


Tabbed: Wackness

One of my favorite songs from Tool...Pretty easy to play but you be the judge.

[INTRO]
E|---------------------------------------|
B|---------------------------------------|
G|---------------------------------------|
D|---------------------------------------| 6X
A|---------------------------------------|
D|---12-0-0-3---/12-0-0-5---/12-0-0-1/10-|

E|------------------------------------------------------------------|
B|------------------------------------------------------------------|
G|------------------------------------------------------------------|
D|---12----------10------12-----------------------------------------|
A|---12-------12------12----12--------------------------------------|
D|---12---------------------------13-15-12-----13-15-12-----12/1/10-|

E|-----------------|        
B|-----------------|        
G|-----------------| 8X     
D|-----------------|        
A|-----------------|        
D|--0-10-12-0-12~--|        

E|---------------------------------------------|                             
B|---------------------------------------------|
G|---------------------------------------------|
D|---------------------------------------------| 4X
A|---------------------------------------------|
D|--12-0-0-12/10--12-0-0-10/12--12-0-0-1/10----|
pm|-------------------------------------------|

E|------------------------------------------------|
B|------------------------------------------------|
G|------------------------------------------------| 3X
D|------------------------------------------------|
A|------------------------------------------------|
D|--12-15-12-10-12---12-15-12-10-12---12-15-12-10-|

E|---------------------------------------|
B|---------------------------------------|
G|---------------------------------------|
D|---------------------------------------|
A|---------------------------------------|
D|--12-15-12-10-12-12-12-12-10-10-12-12~-|

E|---------------------------------------|
B|---------------------------------------|
G|---------------------------------------|
D|---------------------------------------| 3X
A|---------------------------------------|
D|--12-0-0-3---/12-0-0-5---/12-0-0-1/10--|

E|------------------------------------------------|
B|------------------------------------------------|
G|------------------------------------------------|
D|--0-10-12-0-12~--0-10-12-0-12~--0-10-12-0-1/10--|
A|--0-10-12-0-12~--0-10-12-0-12~--0-10-12-0-1/10--|
D|--0-10-12-0-12~--0-10-12-0-12~--0-10-12-0-1/10--|

E|-------------------|
B|--15--~bend--------|(tremelo picking)(Listen To Song To See How Long)
G|--14--~bend--------|
D|--12--~bend--------|
A|--12--~bend--------|
D|--12--~bend--------|

E|----------------------------------|
B|----------------------------------|
G|----------------------------------|
D|--12----7----10-10--0-8-7-5/12----| 3X
A|--12----7----10-10--0-8-7-5/12----|
D|--12----7----10-10--0-8-7-5/12----|

E|-----------------|
B|-----------------|
G|-----------------|
D|--12----7----10~-|
A|--12----7----10~-|
D|--12----7----10~-|

E|---------------------------------------|
B|---------------------------------------|
G|---------------------------------------|
D|--(fast tremolo picking)---------------| 8X
A|---------------------------------------|
D|--10-12-12-10-12-12-10-12-12-10-12-12--|

E|-------------------|    
B|-------------------|    
G|-------------------|8X  
D|-------------------|    
A|-------------------|    
D|--12-15-12-10-12---|
pm|------------------|   

E|-----------------------|
B|-----------------------|
G|-----------------------|8X
D|-----------------------|    REPEAT 2 TIMES
A|-----------------------|
D|--12-10-12-10-12~------|
 pm|---------------------|

E|----------------------------------------|
B|----------------------------------------|
G|----------------------------------------|
D|--/12-0-0-3---/12-0-0-5---/12-0-0-1/10--|
A|--/12-0-0-3---/12-0-0-5---/12-0-0-1/10--|(4x)
D|--/12-0-0-3---/12-0-0-5---/12-0-0-1/10--|

E|------------------------------------------------|
B|------------------------------------------------|
G|------------------------------------------------|
D|-12--------6----------3--------------3/5-5------|
A|-12--------6----------3--------------3/5-5------|
D|-12--------6----------3--------------3/5-5------|

E|------------------------------------------------|
B|------------------------------------------------|
G|------------------------------------------------|
D|-12--------6----------3--------------3/8-8------|
A|-12--------6----------3--------------3/8-8------|
D|-12--------6----------3--------------3/8-8------|

E|------------------------------------------------|
B|------------------------------------------------|
G|------------------------------------------------|
D|-12--------6----------3--------------3/5-5------|
A|-12--------6----------3--------------3/5-5------|
D|-12--------6----------3--------------3/5-5------|

E|------------------------------------------------|
B|------------------------------------------------|
G|------------------------------------------------|
D|-12--------10---------3~------------------------|
A|-12--------10---------3~------------------------|
D|-12--------10---------3~------------------------|

E|-----------------------------------------------------|
B|-----------------------------------------------------|
G|-----------------------------------------------------|
D|-----------------------------------------------------|(3X)
A|----------------------------3~-------------0-1/------|
D|--12p0---0-3-5-6-------3~-------------0-1/-----------|

E|-------------------------------------------------|
B|-------------------------------------------------|
G|-------------------------------------------------|
D|--12--------6----------3---------8---------------|
A|--12--------6----------3---------8---------------|
D|--12--------6----------3---------8-----8~--------|

[OUTRO]
E|----------------------------------------|
B|----------------------------------------|
G|----------------------------------------|
D|--/12-0-0-3---/12-0-0-5---/12-0-0-1/10--|
A|--/12-0-0-3---/12-0-0-5---/12-0-0-1/10--|(2X)
D|--/12-0-0-3---/12-0-0-5---/12-0-0-1/10--|

E|----------------------------------------|
B|----------------------------------------|
G|----------------------------------------|
D|--/12-0-0-3---/12-0-0-5---/12-0-0-1-10--|
A|--/12-0-0-3---/12-0-0-5---/12-0-0-1-10--|
D|--/12-0-0-3---/12-0-0-5---/12-0-0-1-10--|

E|-------------------------------------|
B|-------------------------------------|
G|-------------------------------------|
D|--/12-0-0-3---/12-0-0-5---/12-0-0-1--|
A|--/12-0-0-3---/12-0-0-5---/12-0-0-1--|
D|--/12-0-0-3---/12-0-0-5---/12-0-0-1--|

************************************

| /  Slide up
| ~  Vibrato
| p  Pull-off

************************************

            
            
Suggest correction
Creating personal tab
Creating personal tab
You can edit any tab online and save it as your Personal.

You can edit, replace or remove any tab part or add personal notes – all changes will be seen only by you.

Personal tabs can be accessed anytime from any device, even offline.
Learn more »
comments
print report bad tab
4 comments total. Showing first comments.
0 reply
valdean 157 Feb 04, 2009 11:17 AM

I'm pretty sure that the 12th on the E string, in the intro is bended like, a half step up.

+1 reply
bradley9in 10 Jan 20, 2012 10:01 AM

I recently saw Tool live and have two small changes. They were easy to spot because of Adam's hand position was near the headstock.

The second part should be:
(with Flange)

E|--------------------------------------------------------|
B|------------1------3------------------------------------|
G|---2------2------2---2----------------------------------|
D|--------------------------------------------------------|
A|--------------------------------------------------------|
D|-0-----------------------13-15-12----13-15-12---12/1/10-|


The fourth part should be:
E|-------------------------------------------------|
B|-------------------------------------------------|
G|-------------------------------------------------|
D|-------------------------------------------------|
A|-----------5\3-5-------3h5-5----------3----------|
D|-12-0----0-------0---0-------0---0-1-------------|

E|-------------------------------------------------|
B|-------------------------------------------------|
G|-------------------------------------------------|
D|-------------------------------------------------|
A|--5---------5\3-5-------3h5-5--------------------|
D|----0----0-------0---0-------0---0-1--3----------|

E|-------------------------------------------------|
B|-------------------------------------------------|
G|-------------------------------------------------|
D|-------------------------------------------------|
A|--5---------5\3-5-------3h5-5----------3---------|
D|----0----0-------0---0-------0---0-1-------------|

E|-------------------------------------------------|
B|-------------------------------------------------|
G|-------------------------------------------------|
D|-------------------------------------------------|
A|--5---------5\3-5-------3h5-5--------------------|
D|----0----0-------0---0-------0---0-1--3----------|


Otherwise, Excellent Tab!

0 reply
wackness 81 Apr 10, 2012 10:08 PM

I agree with you 100%, its been a while since i posted this version and over the years i have changed the way i have originally played jimmy. These corrections that you suggest are exactly what i play now, i just kind of forgot about this tab i made and have not made changes. Thank you for your changes!!

guest
You may want to rate the tab now too:
select rating
Wanna post a correction for this tab? Suggest correction