Oops, an error
Loading. Please wait.

Maynards Dick bass

version 1
version 1

Whole song

Interactive

by Tool
1,702 views 6 this week
1 commentread comment
1 2 3 4 5
x 4
add to favorites
×
Save as Personal and add changes to this tab that will be seen only by you. Learn more ›
×
You can save this tab as Personal to edit and correct it or add notes. All changes will be seen only by you. Learn more »
launch autoscroll
font size
0
reset
guitar tuner
backing track
0:00
0:00
edit
Autoscroll
slow
fast
+/-
esc
set tempo
stop
Author
I Can't believe no-ones posted the bass tab for this song yet so here you all go, 
enjoy & have fun. Please Rate & Comment




Intro
G----------------0-|
D---------0--2-----|
A--0--2------------|
E------------------|

Verse 
G------------------------------------------------0---|
D----------------3-5-3---0-0-00---------0---2--------|
A-------------------------------------0---2----------|
E-0-0--00--3-3---------------------------------------|

Chorus
G----------------------------------------------|---------------------|
D------------------------2-0-2-0-2-5-4-0-5-4-0-|---------------------|
A----------------2-4-5-------------------------|---------------------|
E-3-33-33-3-3----------------------------------|--5-3---5-3--5-3--0--|

Bridge 
G------------------------------------------------------------|
D------------------------------2--2-5-2-5-222---2-5-2-5-222--|
A------------------------------------------------------------|
E-0--0--3-0-3-000-0-3-0-3-000--------------------------------|

            
            
Suggest correction
Creating personal tab
Creating personal tab
You can edit any tab online and save it as your Personal.

You can edit, replace or remove any tab part or add personal notes – all changes will be seen only by you.

Personal tabs can be accessed anytime from any device, even offline.
Learn more »
comments
print report bad tab
1 comment total.
+1 reply
metalmusicowns 93 Feb 13, 2009 04:58 PM

totally wrong

guest
You may want to rate the tab now too:
select rating
Wanna post a correction for this tab? Suggest correction