Oops, an error
Loading. Please wait.

Part Of Me tab

version 3
version 3

Whole song

Interactive

by Tool
7,274 views 9 this week
4 commentsread comments
1 2 3 4 5
x 10
add to favorites
×
Save as Personal and add changes to this tab that will be seen only by you. Learn more ›
×
You can save this tab as Personal to edit and correct it or add notes. All changes will be seen only by you. Learn more »
launch autoscroll
font size
0
reset
how to read this tab
guitar tuner
edit
Autoscroll
slow
fast
+/-
esc
set tempo
stop
-------------------------------------------------------------------------------
                             Part Of Me - Tool                                
-------------------------------------------------------------------------------

Tabbed by: Weavel
Email: tool_jack@yahoo.com

Tuning: DADGBE

  x  have fingers barely of the fret board
 pm  Palm Mute

    Riff A    
e|--------------------------------------------------------|
B|--------------------------------------------------------|
G|--------------------------------------------------------| 
D|-2-x-x-2-x-x-5-x-x-5-x-x-2-x-x-2-x-x-6-6-6-5-5-5-3-3-3--|
A|-2-x-x-2-x-x-3-x-x-3-x-x-2-x-x-2-x-x-6-6-6-5-5-5-3-3-3--|
D|-2-x-x-2-x-x---------x-x-2-x-x-2-x-x-6-6-6-5-5-5-3-3-3--|
   
   Riff B                            Riff C
e|----------------------------   e--------------------------|
B|----------------------------   B--------------------------|
G|----------------------------   G--------------------------|
D|-0-6-5-0-3-0-6-5-0-3-3-3----   D--------------------------|
A|-0-6-5-0-3-0-6-5-0-3-3-3----   A--------------------------|
D|-0-6-5-0-3-0-6-5-0-3-3-3----   D-0-6-5-0-3-0-6-5-0-3-3-3--|
                                  pm . . . . . . . . . . 
   Riff D                            Riff E
e|-------------------------   e----------------------------|
B|-------------------------   B----------------------------|
G|-------------------------   G-----------------------1----|
D|-2-x-5-x-2-x-5-x-2-x-5---   D-1-0---3---1-0---3-1-0------|
A|-2-x-3-x-2-x-3-x-2-x-3---   A-----0---0-----0------------|
D|-2-x-----2-x-----2-x-----   D----------------------------|

   Riff F
e|---------------------------------------------------------------------------|
B|---------------------------------------------------------------------------|
G|---------------------------------------------------------------------------|
D|---------------------------------------------------------------------------|
A|---------------------------------------------------------------------------|
D|-3---000000000000000000000000000000000000000000000000----------------------|
      pm........................................
   Listen to the song to get the transition from palm mute and regular.
    Riff G
e|---------------------------------------------------------------------------|
B|---------------------------------------------------------------------------|
G|---------------------------------------------------------------------------|
D|-5---5-7-9-7----5-7-9-5----5-7-9-7----5-7-9--------------------------------|
A|---------------------------------------------------------------------------|
D|---------------------------------------------------------------------------|

Structure
Riff A x2
Riff B x4
Riff D x1
Riff C x2
Riff E x2
Riff C x2
Riff E x2
Riff B x1
Riff F x1
Riff A x2
Riff G x1
Riff B x6
Riff D x1
Riff C x6
Riff D x1
Riff B x6
Riff E x2
Riff B x2
Riff E x2
Riff B x1

This is my first tab that I submitted, I hope it works for you.
I love this song.  it's good for beginners too.  Enjoy!!
===============================================================================

            
            
Suggest correction
Creating personal tab
Creating personal tab
You can edit any tab online and save it as your Personal.

You can edit, replace or remove any tab part or add personal notes – all changes will be seen only by you.

Personal tabs can be accessed anytime from any device, even offline.
Learn more »
comments
print report bad tab
4 comments total. Showing first comments.
+1 reply
browar 1,097 Oct 10, 2007 01:11 AM

riff E should be:

e------------------------------------|
B------------------------------------|
G------------------------------------|
D---------3-----------3-----------6--|
A-0-6-5-0-----0-6-5-0-----6---5------|
D------------------------------------|

0 reply
beef-eater> 10 Nov 17, 2007 06:02 PM

good tab but solos off abit

-1 reply
shawnithin69 10 Aug 04, 2008 09:35 AM

also its 5554 222 6665 333
5554 222 not 6665 333
5554 222 6665 333

guest
Wanna post a correction for this tab? Suggest correction