Oops, an error
Loading. Please wait.

Rosetta Stoned tab

version 1
version 1

Whole song

by Tool
45,319 views 15 this week
18 commentsread comments
1 2 3 4 5
x 21
add to favorites
×
Save as Personal and add changes to this tab that will be seen only by you. Learn more ›
×
You can save this tab as Personal to edit and correct it or add notes. All changes will be seen only by you. Learn more »
launch autoscroll
font size
0
reset
how to read this tab
guitar tuner
backing track
0:00
0:00
edit
Autoscroll
slow
fast
+/-
esc
set tempo
stop
Author
Song:   Rosetta Stoned
Band:   Tool
Album:  10,000 Days
Tabber: Chris - Jake-HK





:03
E----------------------------------------------|
B----------------------------------------------|
G----------------------------------------------|
D----------------------------------------------|
A-----3-5~~~~~~------3-5----------------3-5----|
D-3-5------------3-5-----0~~~~~~----3-5----000-|

|------------------|
|------------------|
|------------------|
|------------------|
|-----------3h5----|
|-3-5-0-3-5----000-| 8x
pm-

|-------------|
|-------------|
|-------------|
|-------------|
|-------3-5---|
|-0-3-5-------| 8x

|-|----------------|
|-|----------------|
|-|----------------|
|-|----------3h5---|
|-|----------3h5---|
|0|3-5-0-3-5----000| 8x


|-------------|
|-------------|
|-------------|
|-------------|
|-------3-5---|
|-0-3-5-------| 8x

|-|----------------|
|-|----------------|
|-|----------------|
|-|----------3h5---|
|-|----------3h5---|
|0|3-5-0-3-5----000| 8x

|-------------|
|-------------|
|-------------|
|-------------|
|-------3-5---|
|-0-3-5-------| 8x

1:51
|---------------|
|---------------|
|---------------|
|---------------|
|---------15-17-|
|-0-15-17-------| 8x

|--------------------|-----------------------|
|--------------------|-----------------------|
|--------------------|-----------------------|
|--------------------|-----------------------|
|---------------3h5--|-----------------3-5---|
|0-3-0-3-5--3-5----00|-0-3-5-3-5-0-3-5-------|
             (3 times)

2:13
|------------------------|--------------------------|
|------------------------|--------------------------|
|------------------------|--------------------------|
|-0-3-0-3-5----3-5-3h5---|-0-3-0-3-5-------3h5------|
|-0-3-0-3-5----3-5-3h5p0-|-0-3-0-3-5-------3h5p0--|
|-0-3-0-3-5--xx3-5-------|-0-3-0-3-5-xxxxxx---------|
                 (3 times)


|---------------------------------------------------------------------------------|
|---------------------------------------------------------------------------------|
|---------------------------------------------------------------------------------|
|---------------------------------------------------------------------------------|
|-----3---0-----3----------3---0-----3--------3---0-----3---------3---0-----3-----|
|-0-3---0---0-3---3h5--0-3---0---0-3---3h53h5---0---0-3---3h5-0-3---0---0-3---3h5-|
pm


|---------------------|------------------------------|
|---------------------|------------------------------|
|---------------------|------------------------------|
|----3---0-----3------|-----3---0-----3---0-----3----|
|0-3-3-0-0-----3--5\7-|-0-3-3-0-0-0-3-3-0-0-0-3---3--|
|0-3---0---0-0-3-h5\7-|-0-3---0---0-3---0---0-3------|
 pm            (3 times)

2:43
|------------------------------|-----------|
|------------------------------|-----------|
|------------------------------|-----------|
|-0-3\\10-0-12-0-3\\10-0-10h12-|-0~~-------|
|-0-3\\10-0-12-0-3\\10-0-10h12-|-0~~~------|
|-0-3\\10-0-12-0-3\\10-0-10h12-|-0~~-------|
                       (3 times, 4th end with)

2:59 
|-----------------------|-----------------------|-----------------------|--------------|
|-----------------------|-----------------------|-----------------------|--------------|
|-----------------------|-----------------------|-----------------------|--------------|
|-----2-----0-----2-----|-----0-----0-----0-----|-0-0---3-3---0-0---3-3-|-0-0--0--0-0--|
|---0-----3-----0-----3-|---0-----3-----0-----3-|-0-0---3-3---0-0---3-3-|-0-0--0--0-0--|
|-0-----3-----0-----3---|-0-----3-----0-----3---|-0-0-xx3-3-xx0-0-xx3-3-|-0-0--0--0-0--|
pm           12 times                   4 times                 3 times


|-----------------------|-----------------------|-----------------------|--------------|
|-----------------------|-----------------------|-----------------------|--------------|
|-----------------------|-----------------------|-----------------------|--------------|
|-----2-----0-----2-----|-----0-----0-----0-----|-0-0---3-3---0-0---3-3-|-0-0--0--0-0--|
|---0-----3-----0-----3-|---0-----3-----0-----3-|-0-0---3-3---0-0---3-3-|-0-0--0--0-0--|
|-0-----3-----0-----3---|-0-----3-----0-----3---|-0-0-xx3-3-xx0-0-xx3-3-|-0-0--0--0-0--|
pm               8 times                 4 times                3 times

4:50
|----------------------------------------|----------------------|
|----------------------------------------|----------------------|
|----------------------------------------|----------------------|
|--------0----------0----------0---------|----2-----0-----2-----|
|-------------------------------------0--|--0-----3-----0-----3-|
|-0h3-0h3-h3-0h3-0h3-h3-0h3-0h3-h3-0h3-h3|0-----3-----0-----3---|
                                                        3 times
|--------------------------|----------------------|
|--------------------------|----------------------|
|--------------------------|----------------------|
|-----2p0---------2h3------|----0-----0-----0-----|
|-0-3-----3---0-3-----3p0--|--0-----3-----0-----3-|
|-0-3-------3-0-3-----3p0--|0-----3-----0-----3---|
                                         4 times
5:17
|-----------------------|------------------------------|
|-----------------------|------------------------------|
|-----------------------|------------------------------|
|-----------------------|-------------12-12-10\12------|
|-0-0---3-3---0-0---3-3-|-0-0---3-3--\12-12-10\12------|
|-0-0-xx3-3-xx0-0-xx3-3-|-0-0-xx3-3--\12-12-10\12------|
                3 times
|-----------------------|---------------------------------------------|-----|-------|
|-----------------------|---------------------------------------------|-----|-------|
|-----------------------|---------------------------------------------|-----|-------|
|-0-0---3-3---0-0---3-3-|-0-0---3-3---0-0---8-8-0-0---3-3---0-0---3-3-|-0-0-|0--0-0-|
|-0-0---3-3---0-0---3-3-|-0-0---3-3---0-0---8-8-0-0---3-3---0-0---3-3-|-0-0-|0--0-0-|
|-0-0---3-3---0-0---3-3-|-0-0---3-3---0-0---8-8-0-0---3-3---0-0---3-3-|-0-0-|0--0-0-|
                2 times                                                15x

6:03 delay
|----------------------------|------------------------------|-----------------------------|
|----------------------------|------------------------------|-----------------------------|
|----------------------------|------------------------------|-----------------------------|
|-----------10----------10---|-----------10-----------10h12-|-----------10-----------10---|
|------10h12-------10h12-----|------10h12--------10h12------|------10h12--------10h12-----|
|-10h12-------10h12------h12-|-10h12--------10h12-----------|-10h12--------10h12------h12-|
                    16 times |(singing starts)       4 times|                      8 times
6:47
|------------------------------|--------------------------------------------------|
|------------------------------|--------------------------------------------------|
|------------------------------|--------------------------------------------------|
|-----------10-----------10h12-|-----------10p0-0~~~~------------10p0-0~~~~-------|
|------10h12--------10h12------|------10h12----------------10h12------------------|
|-10h12--------10h12-----------|-10h12----------------10h12-----------------0-----|
                       4 times                               2 times end w/ scrapes

solo

7:20
|--------------------------------------------------------------------------|
|--------------------------------------------------------------------------|
|--------------------------------------------------------------------------|
|-13~~~~~--13~~~12~~~~~~~~~~~--13~~~~~~~~--15~~~~~~~~--12/13\12~~~~~~~~~---|
|--------------------------------------------------------------------------|
|--------------------------------------------------------------------------|
PH W/ VOLUME SWELLS

|----------------------------------------------------------------------------------------|
|----------------------------------------------------------------------------------------|
|----------------------------------------------------------------------------------------|
|-\\20~~19~~~~~~~~17~17~~20~19h20~19~~~~~~~~-15~~~~~15h17~~~~~~--------13-12h13-12~~~----|
|----------------------------------------------------------------15~15-------------------|
|----------------------------------------------------------------------------------------|

8:14 delay| 
|-----------------------------|----------------------------------------------------|
|-----------------------------|----------------------------------------------------|
|-----------------------------|----------------------------------------------------|
|-----------10-----------10---|----------------------------------------------------|
|------10h12--------10h12-----|-19-19-19-19-19-17-17-17-17-------------------------|
|-10h12--------10h12------h12-|----------------------------19-19-19-19-17-17-17-17-|
                    14 times| - pinch harmonics -

8:42
|--------------------------------------------------------------|
|-------------------------------------------------------11-11--|
|-14~~----------7-------10---14-----------------7-------10-10--|
|-12~~----------5-------8----12-----------------5-------8--8---|
|-12~~----------5-------8----12-----------------5-------8--8---|
|-12~~--10~-3\5-5--5\8~-8----12--10h12p10~~-3\5-5--3\8--8--8---|
                ^upstroke                       ^upstroke                         
                        ^upstroke                       ^downstrokes
8:52 
d=downstroke u=upstroke

|-------------------------------------------------|----------------------------------------------------|
|-15-15--15---13-13--13-13---8-8--8---11-11-11-11-|-15-15--15-15\-13-13/18-18--\8-8--8--8-11-11-11-/6~-|
|-14-14--14---12-12--12-12---7-7--7---10-10-10-10-|-14-14--14-14\-12-12/17-17--\7-7--7--7-10-10-10-/5~-|
|-12-12--12---10-10--10-10---5-5--5---8--8--8--8--|-12-12--12-12\-10-10/15-15--\5-5--5--5-8--8--8--/3~-|
|-12-12--12---10-10--10-10---5-5--5---8--8--8--8--|----------------------------------------------------|
|-12-12--12---10-10--10-10---5-5--5---8--8--8--8--|----------------------------------------------------|
  d  d   u    d  d   u  d    d d  u   d  d  u  d   ..but i forgot ( all downs) delay
                                         (2 times)      


|-----------------------------------------------|
|-15-15--15-15/-13-13--13-13/-8-8-8--8-11-11^---|
|-14-14--14-14/-12-12--12-12/-7-7-7--7-10-10^---|
|-12-12--12-12/-10-10--10-10/-5-5-5--5-8--8^----|
|-----------------------------------------------|
|-----------------------------------------------|
 "shit the bed...   

9:18        9:43                           (fig.1)
|----------|----------|------|-------------|--------------------|
|----------|----------|------|-------------|--------------------|
|----------|----------|------|-------------|--------------------|
|-0-0--0-0-|-0-0--0---|0-0---|-0-0-0--0-0--|-------3--------3---|
|-0-0--0-0-|-0-0--0---|0-0---|-0-0-0--0-0--|----3h5------3h5----|
|-0-0--0-0-|-0-0--0-x-|0-0-x-|-0-0-0--0-0--|-3h5------3h5---h5--| 
  4 times              6 times                         (8 times)



9:55 (fig.2)
|--------------------------------------|
|--------------------------------------|
|--------------------------------------|
|-------0---------0---------0----------|
|----------------------------------0---|
|-0h30h3-h3-0h30h3-h3-0h30h3-h3-0h3-h3-|2x 

(fig.1) 4 times

(fig.2) 2 times

(fig.1) 4 times

|--------------------------------------|
|--------------------------------------|
|--------------------------------------|
|-------0---------0---------0----------|
|----------------------------------0---|
|-0h30h3-h3-0h30h3-h3-0h30h3-h3-0h3-h3-|3 times

|------------------------------------|
|------------------------------------|
|------------------------------------|
|-------0---------0---------0--------|
|----------------------------------0-|
|-0h30h3-h3-0h30h3-h3-0h30h3-h3-0h3--|

10:31
|----||--------------------------------------------||
|----||--------------------------------------------||
|----||----0-----------0-----------0---------------||
|-0h3||----0h3---------0h3---------0h3-----0-------||
|-0h3||0-3--h3-0-3-0-3--h3-0-3-0-3--h3-0-3-0h3-0-3-||
|----||0-3--h3-0-3-0-3--h3-0-3-0-3--h3-0-3--h3-0-3-||repeat 5 times
 
10:57                              
|-------------------|
|-------------------|
|-------------------|
|-0-0-0--0-0-0------|
|-0-0-0--0-0-0------| End.
|-0-0-0--0-0-0------|
            5 times

            
            
Suggest correction
Creating personal tab
Creating personal tab
You can edit any tab online and save it as your Personal.

You can edit, replace or remove any tab part or add personal notes – all changes will be seen only by you.

Personal tabs can be accessed anytime from any device, even offline.
Learn more »
comments
print report bad tab
18 comments total. Showing first comments.
-1 reply
Jake-HK 122 May 08, 2006 12:44 AM

Solo is played with a wah maybe, and some other effect that I don't own.

+1 reply
Ginky 141 Jun 05, 2006 12:31 AM

this tab isn't right

-1 reply
rebels_nature 10 Jul 01, 2006 06:13 PM

sounds good to me man

guest
You may want to rate the tab now too:
select rating
Wanna post a correction for this tab? Suggest correction