Oops, an error
Loading. Please wait.

Rosetta Stoned tab

version 2
version 2

Whole song

by Tool
67,841 views 144 this week
18 commentsread comments
1 2 3 4 5
x 51
add to favorites
×
Save as Personal and add changes to this tab that will be seen only by you. Learn more ›
×
You can save this tab as Personal to edit and correct it or add notes. All changes will be seen only by you. Learn more »
launch autoscroll
font size
0
reset
how to read this tab
guitar tuner
backing track
0:00
0:00
edit
Autoscroll
slow
fast
+/-
esc
set tempo
stop
Author
Difficulty
Tool
Rosetta Stoned
10,000 Days

Tuning DADGBe (Drop D)

(0:00)x1   (0:03) x1    (0:10)   x1      (0:16)   x1
e|------| e|------------| e|--------------| e|-------------|
B|------| B|------------| B|--------------| B|-------------|
G|------| G|------------| G|--------------| G|-------------|
D|-0~~~~| D|-------0~~~~| D|-------0-0~~~~| D|-------------|
A|-0~~~~| A|-----3------| A|-----3---0~~~~| A|-----3-5p3p0-|
D|-0~~~~| D|-3-5--------| D|-3-5-----0~~~~| D|-3-5---------|

(0:17)(Palm Muted) x7    (0:32)   x1           (0:34)   x8
e|---------------------| e|-----------------| e|-----------|
B|---------------------| B|-----------------| B|-----------|
G|---------------------| G|-----------------| G|-----------|
D|---------------------| D|---------------0~| D|---------0~|
A|-------------3-5p3p0-| A|-------------3~~~| A|-------3~~~|
D|-0-3-5-0-3-5---------| D|-0-3-5-0-3-5~~~~~| D|-0-3-5~~~~~|

(0:45)(Palm Muted) x7     (0:59)     x1        (1:02)   x4    (1:07)   x4
e|----------------------| e|-----------------| e|-----------| e|-----------|
B|----------------------| B|-----------------| B|-----------| B|-----------|
G|----------------------| G|-----------------| G|-----------| G|-----------|
D|-------------3*-------| D|---------------0~| D|---------0~| D|-----------|
A|-0-3-5-0-3-5-3*-5p3p0-| A|-------------3~~~| A|-------3~~~| A|-------3-5-|
D|-0-3-5-0-3-5----------| D|-0-3-5-0-3-5~~~~~| D|-0-3-5~~~~~| D|-0-3-5-----|

(1:12)(Palm Mute) x7     (1:27)     x1        (1:29)   x8
e|---------------------| e|-----------------| e|-----------|
B|---------------------| B|-----------------| B|-----------|
G|---------------------| G|-----------------| G|-----------|
D|---------------------| D|---------------0~| D|---------0~|
A|-------------3-5p3p0-| A|-------------3~~~| A|-------3~~~|
D|-0-3-5-0-3-5---------| D|-0-3-5-0-3-5~~~~~| D|-0-3-5-----|

(1:51)(Light Palm Mute) x8
e|--------------------------|
B|---------3----------------|
G|-------5------------------|
D|-0-3-5--------------------|
A|--------------------------|
D|--------------------------|

(2:02)(Light Palm Mute) x3  (2:09)       x1
e|------------------------| e|---------------------|
B|------------------------| B|---------------------|
G|------------------------| G|---------------------|
D|------------------------| D|-------------------0~|
A|----------------3-5p3p0-| A|-----------------3~~~|
D|-0-3-0-3-5.-3-5---------| D|-0-3-0-3-5-0-3-5~~~~~|

(2:12)         x3              (2:20)       x1
e|---------------------------| e|-------------------------|
B|---------------------------| B|-------------------------|
G|---------------------------| G|-------------------------|
D|-0-3-0-3-5-!!-3-5-3*-------| D|-0-3-0-3-5-!!!!-3*-------|
A|-0-3-0-3-5-!!-3-5-3*-5p3p0-| A|-0-3-0-3-5-!!!!-3*-5p3p0-|
D|-0-3-0-3-5-!!-3-5----------| D|-0-3-0-3-5-!!!!----------|

(2:23)(Palm Mute)                  x1
e|-------------------------------------------------------------|
B|-------------------------------------------------------------|
G|-------------------------------------------------------------|
D|-------------------------------------------------------------|
A|-----3---0-----3---------3---0-----3---------3---0-----3-----|
D|-0-3---0---0-3---3h5-0-3---0---0-3---3h5-3h5---0---0-3---3h5-|

(2:32)(Palm Mute D String Only)  x3
e|----------------------------------|
B|----------------------------------|
G|----------------------------------|
D|-----3*---0*-----3*-3*/5----------|
A|-----3*---0*-----3*-3*/5----------|
D|-0-3----0----0-3------------------|

(2:39)(Palm Mute D String Only) x1   (2:43)          x4
e|---------------------------------| e|----------------------------|
B|---------------------------------| B|----------------------------|
G|---------------------------------| G|----------------------------|
D|-----3*---0*-----5*---3*-------3-| D|-0-3/10-0-12-0-3/10-0-10h12-|
A|-----3*---0*-----5*---3*-----3---| A|-0-3/10-0-12-0-3/10-0-10h12-|
D|-0-3----0----0-3----0----0-3-----| D|-0-3/10-0-12-0-3/10-0-10h12-|

(2:53) x1 (2:57)(Palm Mute)x12 (3:34)(Slowly Let Off Palm Mute) x4
          (Adam lightly pulls the e's(2's) played on high D string, makes that tension sound)
e|------| e|-----------------| e|---------------------------------|
B|------| B|-----------------| B|---------------------------------|
G|------| G|-----------------| G|---------------------------------|
D|-0~~~~| D|-----2---0---2---| D|-----0---0---0-------------------|
A|-0~~~~| A|---0---3---0---3-| A|---0---3---0---3-----------------|
D|-0~~~~| D|-0---3---0---3---| D|-0---3---0---3-------------------|

(3:47)
e|---------------------------------------------------------|
B|---------------------------------------------------------|
G|---------------------------------------------------------|
D|-00--33--00!!33-00!!33!!00!!33-00!!33!!00!!33--0-0~~0-0~~|
A|-00--33--00!!33-00!!33!!00!!33-00!!33!!00!!33--0-0~~0-0~~|
D|-00--33--00!!33-00!!33!!00!!33-00!!33!!00!!33--0-0~~0-0~~|


(3:59)     x4        (4:11)(Palm Mute) x4 (4:24)(Let Off P.M.) x4
e|-----------------| e|-----------------| e|-----------------|
B|-----------------| B|-----------------| B|-----------------|
G|-----------------| G|-----------------| G|-----------------|
D|-----2---0---2---| D|-----2---0---2---| D|-----0---0---0---|
A|---0---3---0---3-| A|---0---3---0---3-| A|---0---3---0---3-|
D|-0---3---0---3---| D|-0---3---0---3---| D|-0---3---0---3---|

(4:36)
e|---------------------------------------------------------|
B|---------------------------------------------------------|
G|---------------------------------------------------------|
D|-00--33--00!!33-00!!33!!00!!33-00!!33!!00!!33--0-0~~0-0~~|
A|-00--33--00!!33-00!!33!!00!!33-00!!33!!00!!33--0-0~~0-0~~|
D|-00--33--00!!33-00!!33!!00!!33-00!!33!!00!!33--0-0~~0-0~~|

(4:48)(Palm Mute D String Only)
e|-------------------------------------------------|
B|-------------------------------------------------|
G|-------------------------------------------------|
D|-------------------------------------------------|
A|---------5*p3---------5*p3---------5*p3-----3*p0-|
D|-0-3-0-3------0-3-0-3------0-3-0-3------0-3------|

(4:51)    x3         (5:00)    x1                   (5:03)   x4
e|-----------------| e|---------------------------| e|-----------------|
B|-----------------| B|---------------------------| B|-----------------|
G|-----------------| G|---------------------------| G|-----------------|
D|-----2---0---2---| D|-----0h2-0---------0h2-0---| D|-----0---0---0---|
A|---0---3---0---3-| A|---0-------3-----0-------3-| A|---0---3---0---3-|
D|-0---3---0---3---| D|-0-----------3-0-----------| D|-0---3---0---3---|

(5:16)           x1
e|-----------------------------------------------------------------|
B|-----------------------------------------------------------------|
G|-----------------------------------------------------------------|
D|-00--33--00!!33-00!!33!!00!!33-00!!33!!00!!33-00--33--12-10--3-5-|
A|-00--33--00!!33-00!!33!!00!!33-00!!33!!00!!33-00--33--10-10--3-3-|
D|-00--33--00!!33-00!!33!!00!!33-00!!33!!00!!33-00--33--10-10--3-3-|

(5:28)            x1
e|-------------------------------------------------------------------------|
B|-------------------------------------------------------------------------|
G|-------------------------------------------------------------------------|
D|-0-0~~3-3~~0-0~~33-0-0~~3-3~~0-0~~33-0-0~~3-3~~0-0~~88-0-0~~3-3~~0-0~~33-|
A|-0-0~~3-3~~0-0~~33-0-0~~3-3~~0-0~~33-0-0~~3-3~~0-0~~88-0-0~~3-3~~0-0~~33-|
D|-0-0~~3-3~~0-0~~33-0-0~~3-3~~0-0~~33-0-0~~3-3~~0-0~~88-0-0~~3-3~~0-0~~33-|

(5:40) x16
e|-------|
B|-------|
G|-------|
D|-0.-0.-|
A|-0.-0.-|
D|-0.-0.-|

(6:02) x32
(you do it a lot of fuckin times, ugh)
e|----------------|
B|----------------|
G|----------------|
D|-------------10-|
A|-------10h12----|
D|-10h12----------|

(6:27)      x4
e|----------------------------------|
B|----------------------------------|
G|----------------------------------|
D|-------------10-------------10h12-|
A|-------10h12----------10h12-------|
D|-10h12----------10h12-------------|

(6:33)    x16
e|----------------|
B|----------------|
G|----------------|
D|-------------10-|
A|-------10h12----|
D|-10h12----------|

(6:45)         x4
e|----------------------------------|
B|----------------------------------|
G|----------------------------------|
D|-------------10-------------10h12-|
A|-------10h12----------10h12-------|
D|-10h12----------10h12-------------|

(6:52)             x1
e|-------------------------------------------------------------------------|
B|-------------------------------------------------------------------------|
G|-------------------------------------------------------------------------|
D|-----------10p0~~0~~----------10~~0~~-------------10~~0~~----------------|
A|------10h12--------------10h12---------------10h12----------10h12########|
D|-10h12--------------10h12------------0~~10h12----------10h12-----########|

(7:18)(Adam uses a talk box, never used one so i dont know exactly how it works but 
are the notes(played spaced apart))
e|-----------------------------------------------------------------|
B|-4~~3~~~~4~~6~~4\3~~~~11~~10~~88~~1111~~10~~~~6~~~8~~~---44~3~~~~|
G|------------------------------------------------------55---------|
D|-----------------------------------------------------------------|
A|-----------------------------------------------------------------|
D|-----------------------------------------------------------------|

(8:13)   x28      (8:34)(the (12)'s are natural harmonics on 12 fret)
e|--------------| e|----------------------------------------|
B|--------------| B|----------------------------------------|
G|--------------| G|----------------------------------------|  x1
D|----------10~~| D|-(12)(12)12121212-10101010-5555-3~~~0~~~|
A|-----10h12----| A|----------------------------------------|
D|-0h12---------| D|----------------------------------------|

(8:39)
e|-------------------------------------------------------|
B|---------------------------------------------------11~~|
G|---------------------------------------------------10~~|
D|------------0~~~~~~0~~----------------------0~~~~~~8~~~|
A|----------------------3h5~~~~3h5p3-3v~~------------8~~~|
D|-10~~~~3/5~~~~5/8~~~~~-----------------3/5~~~~5/8~~8~~~|

(8:51)    x2
(strum each chord about 4 times,     (once again, listen closley and you'll
sometimes less, just listen           notice he squeezes in that last chord
closely.)                             (_) the 3rd time around.)
e|---------------|                   e|----------------|------------|
B|-15--13--8--11-|                   B|-15-13-8-11-(6)-|-15-13-8-11-|
G|-14--12--7--10-|                   G|-14-12-7-10-(5)-|-14-12-7-10-|
D|-12--10--5--8--|                   D|-12-10-5-8--(3)-|-12-10-5-8--|
A|-12--10--5--8--|                   A|----------------|------------|
D|-12--10--5--8--|                   D|----------------|------------|

(9:15)(listen closley, the rythme changes)
e|-------|
B|-------|
G|-------|
D|-0.-0.-|
A|-0.-0.-|
D|-0.-0.-|

(9:39)(palm mute) (9:52)(palm mute D string only)
      x16                             x2
e|---------|      e|-------------------------------------------------|
B|---------|      B|-------------------------------------------------|
G|---------|      G|-------------------------------------------------|
D|-------3-|      D|-------------------------------------------------|
A|----3h5--|      A|---------5*p3---------5*p3---------5*p3-----3*p0-|
D|-3h5-----|      D|-0-3-0-3------0-3-0-3------0-3-0-3------0-3------|
(repeat the 1st part again x8, then the 2nd part x2, then the 1st part AGAIN x8 and the 
part x4, ugh)

(10:28)(im getting lazy, you figure out how many times to do this)
e|---------------------------------------------|
B|---------------------------------------------|
G|---------------------------------------------|
D|-0h3-----0h3---------0h3---------0h3-----0h3-|
A|-0h3-----0h3---------0h3---------0h3-----0h3-|
D|-----0-3-----0-3-0-3-----0-3-0-3-----0-3-----|

(10:53)(this part is tricky, count 1,2,3,4 and strum open stings on 1,2,3 but NOT the 
beat, so...  123(4)123(4)123(4) over and over until "god damn shit the bed")
e|-----------|
B|-----------|
G|-----------|
D|-000.-000.-|  and its finally fuckin over.
A|-000.-000.-|
D|-000.-000.-|

Tabbed by: Carl Belas
ive watched adam play this song live, this is like 95% perfect. Some rythmes are too 
to write out, but all the notes are pretty much the real deal, so good luck.

Legend (i might of forgot some things)


************************************

~ - hold note/let ring
p - pull off
* - pinch harmonic
! - lift finger off fret BUT still touching string(s) and strum (makes a harmonic sound)
/ - slide up/down
h - hammer on
. - quick pause
# - pick slide/scratch
v - vibrato

************************************

            
            
Suggest correction
Creating personal tab
Creating personal tab
You can edit any tab online and save it as your Personal.

You can edit, replace or remove any tab part or add personal notes – all changes will be seen only by you.

Personal tabs can be accessed anytime from any device, even offline.
Learn more »
comments
print report bad tab
18 comments total. Showing first comments.
0 reply
Maitinin 19,543 Nov 28, 2007 12:55 PM

great, I've never seen so much information being displayed so compact!
but you need time signature!

+3 reply
CrazehSteve 10 Mar 26, 2008 02:11 PM

Pretty impressive the amount of work you put into this tab, well done! :)

0 reply
ollerom_mot 40 Mar 28, 2008 03:39 PM

Awesome tab mate!

guest
You may want to rate the tab now too:
select rating
Wanna post a correction for this tab? Suggest correction