Oops, an error
Loading. Please wait.

Stinkfist bass

version 2
version 2

Whole song

by Tool
16,362 views 3 this week
7 commentsread comments
1 2 3 4 5
x 12
add to favorites
×
Save as Personal and add changes to this tab that will be seen only by you. Learn more ›
×
You can save this tab as Personal to edit and correct it or add notes. All changes will be seen only by you. Learn more »
launch autoscroll
font size
0
reset
guitar tuner
backing track
0:00
0:00
edit
Autoscroll
slow
fast
+/-
esc
set tempo
stop
TOOL AENEMA

h=hammer on
p=pull off
/=slide up
\=slide down
s=slap
p=pop
~=hold note

this is in drop D.  just like basically every other one of tools songs.

Intro (0:24)  2x
G-----------------------------------|
D-----------------------------------|
A-----5-----5-----5-----------------|
D-2-2---2-2---2-2---2/4-4--4  <-----|it's there, just listen

Verse 1 (0:36) 4x
G----------------|
D----------------|
A----------------|
D-0-22----0-22---|

Verse 2  (0:47) 4x
G---------------------------------------------|   the hammer on's are there,
D----2----2----2-----2   i swear.  hold the 0-| a little
A---------------------------------------------|   and then hammer.
D-0h2--0h2--0h2---0h2-------------------------|

Verse 3 (0:58)
G--------------------------------------|
D-------2----2----2----2----2----2---2-|
A--------------------------------------|
D-0-2-2--2-2--2-2--2-2--2-2--2-2--2-2--|

Chorus (1:08) 3x
G--------------------------------------------|
D--------------------------------------------|
A--------------------------------------------|        i swear it is
D-2--2-2-/-10--10-10-0-0-12-12-0--2h3  <-----|there. listen.

Chorus Variation (1:21) 1x
G------------------------|
D------------------------|
A------------------------|
D-2--2-2-/-10--10-10-0~--|

Bridge (1:26) 2x
G----------------------------|
D----------------------------|
A-----5-----5-----5----------|
D-2-2---2-2---2-2---2/4-4--4-|

Verse 1 (1:37) 4x

Verse 2 (1:48) 4x

Verse 3 (1:59)  1x

Chorus  (2:10)  3x

Chorus Variation (2:22)  1x

Misc. 1 (2:33) 4x
G---------------------------------------------------|
D(0h3)---------3---------0h3---------3----------3p0-|
A---------------------------------------------------|
D------0h2-2-2---0h2-2-2-----0h2-2-2----0h2-2-2-----|
  ^  s   s s p s   s s p   s   s s p  s   s s p
 play this note 1st time only

Ok ok, i know it wasnt slapped or popped.  but it sounds really cool.  so, if you
want, or cant get mr. chancellor's tone, slap and pop.

Misc 2. (2:55) 4x
G-----------------|
D-----------------|
A-----------------|
D-0-2-3-0-5-0-5-7-|

Misc 1 Variation (3:01) 1x
G---------------------------------------------------|
D--------------3---------0h3---------3----------3p0-|
A---------------------------------------------------|
D------0h2-2-2---0h2-2-2-----0h2-2-2----0h2-2-2-----|
       s   s s p s   s s p   s   s s p  s   s s p
       ^^^^^^^^^^^^^^^^^^^^^^^^^^^^^^^^^^^^^^^^^^
Like i said, the slaps and pops are optional.

Misc 2  (3:07) 4x

Misc 1 Variation (3:12) 1x

Misc 2 (3:19) 4x

Misc 2 (palm mutted) (3:25) 4x

Break it down (3:35) 2x
G-----------------------------------------------------|
D-----------------------------------------------------|
A-----------------------------------------------------|
D-2--2--4--2--2--0--2--2--4--2--2--7-9--9--7-9--9--7\-|

Break it down, some more (3:50) 3x
G------------------------------|
D------------------------------|
A------------------------------|
D-10-10-12-12-9-\-2-2-0-2-2-0--|

Vatiation (4:01) 1x
G------------------|
D------------------|
A------------------|
D-10-10-13-13-9-7~-|

Soft Part (4:05) 2x
G---5------------------------|
D-----5-4--------------------|
A---------5-0---3-3--5-5-2---|
D-2-----------2------------2-|

Ill Keep Digging (4:18) 2x
G---------------------------------------------------------|
D---------------------------------------------------------|
A---------------------------------------------------------|
D-2--x--x-x--2--x--x-x--2--x-x-x-x-5--5-5-5/7--7-7-4-4-4--|

Chorus (4:31) 3x

Chorus Variation (4:43) 1x

Outro (4:48)
G--------------------------------------------|
D--2--2--2--2--2--2--2--2--2--2--2--2--2--2~-|
A--------------------------------------------|
D-2--2--2--2--2--2--3--3--3--2--2--2--3--3---|
                    ^
                  I swear the 3's are there. Just listen.

If you have any questions, comments, or corrections, email me at krazykow13@hotmail.com

by the way, this is my first tab, so please give feedback.

            
            
Suggest correction
Creating personal tab
Creating personal tab
You can edit any tab online and save it as your Personal.

You can edit, replace or remove any tab part or add personal notes – all changes will be seen only by you.

Personal tabs can be accessed anytime from any device, even offline.
Learn more »
comments
print report bad tab
7 comments total. Showing first comments.
+1 reply
maggot666 10 Jul 27, 2002 08:00 PM

this is stinkfist not aenima

0 reply
Bahamut_04 10 Jan 13, 2004 07:00 PM

This isn't even the correct song, you ***. This song is called Stinkfist! Get it Right!

0 reply
WallsComeDown 10 May 20, 2004 08:00 PM

Two wee problems with this. First, as has been pointed out, this tab is a song called Stinkfist or "Song 1" for the MTV generation. Furthermore, it isn't a very good stinkfist tab. For Tool tabs, try tooltabs.net (not certain) much higher quality than posted here.

guest
Wanna post a correction for this tab? Suggest correction