Oops, an error
Loading. Please wait.

Stinkfist bass

version 3
version 3

Whole song

by Tool
22,020 views 21 this week
1 commentread comment
1 2 3 4 5
x 10
add to favorites
×
Save as Personal and add changes to this tab that will be seen only by you. Learn more ›
×
You can save this tab as Personal to edit and correct it or add notes. All changes will be seen only by you. Learn more »
launch autoscroll
font size
0
reset
guitar tuner
backing track
0:00
0:00
edit
Autoscroll
slow
fast
+/-
esc
set tempo
stop
Author
this is in drop D.  just like basically every other one of tools songs.

[Intro]
 (0:24)  2x
G|----------------------------
D|----------------------------
A|-----5-----5-----5---------- 
E|D-2-2---2-2---2-2---2/4-4--4  

[Verse 1]
 (0:36) 4x   
G|-----------------
D|-----------------
A|-----------------
E|D-0-22----0-22---

[Verse 2]
 (0:47) 4x
G|----------------------   
D|----2----2----2-----2-   hold the 0 a little  
A|----------------------   and then hammer.
E|D-0h2--0h2--0h2---0h2-

[Verse 3]
 (0:58)
G|--------------------------------------
D|-------2----2----2----2----2----2---2-
A|--------------------------------------
E|D-0-2-2--2-2--2-2--2-2--2-2--2-2--2-2-

[Chorus]
 (1:08) 3x
G|-------------------------------------
D|-------------------------------------
A|-------------------------------------         
E|D-2--2-2-/-10--10-10-0-0-12-12-0--2h3  

 Chorus Variation 
 (1:21) 1x
G|--------------------------
D|--------------------------
A|--------------------------
E|D-2--2-2-/-10--10-10-0~---

[Bridge]
 (1:26) 2x
G|----------------------------
D|----------------------------
A|-----5-----5-----5----------
E|D-2-2---2-2---2-2---2/4-4--4

Verse 1 (1:37) 4x

Verse 2 (1:48) 4x

Verse 3 (1:59)  1x

Chorus  (2:10)  3x

Chorus Variation (2:22)  1x

 Misc. 1 (2:33) 4x
G|----------------------------------------------------
D|(0h3)---------3---------0h3---------3----------3p0--
A|----------------------------------------------------
E|D------0h2-2-2---0h2-2-2-----0h2-2-2----0h2-2-2-----
  ^  s   s s p s   s s p   s   s s p  s   s s p
 play this note 1st time only

Ok ok, i know it wasnt slapped or popped.  but it sounds really cool. 
 so, if you want, or cant get mr. chancellor's tone, slap and pop.

 Misc 2. (2:55) 4x
G|-----------------
D|-----------------
A|-----------------
E|D-0-2-3-0-5-0-5-7

 Misc 1 Variation (3:01) 1x
G|----------------------------------------------------
D|--------------3---------0h3---------3----------3p0--
A|----------------------------------------------------
E|D------0h2-2-2---0h2-2-2-----0h2-2-2----0h2-2-2-----
       s   s s p s   s s p   s   s s p  s   s s p
       ^^^^^^^^^^^^^^^^^^^^^^^^^^^^^^^^^^^^^^^^^^ 
Like i said, the slaps and pops are optional.

Misc 2  (3:07) 4x

Misc 1 Variation (3:12) 1x

Misc 2 (3:19) 4x

Misc 2 (palm mutted) (3:25) 4x

 Break it down (3:35) 2x
G|-----------------------------------------------------
D|-----------------------------------------------------
A|-----------------------------------------------------
E|D-2--2--4--2--2--0--2--2--4--2--2--7-9--9--7-9--9--7\

 Break it down, some more (3:50) 3x
G|-----------------------------
D|-----------------------------
A|-----------------------------
E|D-10-10-12-12-9-\-2-2-0-2-2-0/

 Vatiation (4:01) 1x
G|-----------------
D|-----------------
A|-----------------
E|D-10-10-13-13-9-7~

 Soft Part (4:05) 2x
G|---5------------------------
D|-----5-4--------------------
A|---------5-0---3-3--5-5-2---
E|D-2-----------2------------2

 Ill Keep Digging (4:18) 2x
G|-------------------------------------------------------
D|-------------------------------------------------------
A|-------------------------------------------------------
E|D-2--x--xx--2--x--xxx--2--xxxx-5--5-5-5/7--7-7-4-4-4---

Chorus (4:31) 3x

Chorus Variation (4:43) 1x

[Outro]

(4:48)
G|--------------------------------------------
D|--2--2--2--2--2--2--2--2--2--2--2--2--2--2~-
A|--------------------------------------------
E|D-2--2--2--2--2--2--3--3--3--2--2--2--3--3--
                    ^
                  I swear the 3's are there. Just listen.





************************************

| x  Dead note
| h  Hammer-on
| p  Pull off
| /  Slide up
| \  Slide down
| ~  Vibrato

************************************

            
            
Suggest correction
Creating personal tab
Creating personal tab
You can edit any tab online and save it as your Personal.

You can edit, replace or remove any tab part or add personal notes – all changes will be seen only by you.

Personal tabs can be accessed anytime from any device, even offline.
Learn more »
comments
print report bad tab
1 comment total.
0 reply
eddieNova 10 Nov 03, 2006 06:34 AM

G--------------------------------------------------
D(0h3)---------3---------0h3---------3----------3p0
A--------------------------------------------------
D------0h2-0-2---0h2-0-2-----0h2-0-2----0h2-0-2----

guest
You may want to rate the tab now too:
select rating
Wanna post a correction for this tab? Suggest correction