Oops, an error
Loading. Please wait.
We have an official The Pot tab made by UG professional guitarists. Check out the tab »
×
by Tool
2,276 views 1 this week
no commentswrite comment
1 2 3 4 5
3 more votes to show rating
add to favorites
×
Save as Personal and add changes to this tab that will be seen only by you. Learn more ›
×
You can save this tab as Personal to edit and correct it or add notes. All changes will be seen only by you. Learn more »
launch autoscroll
font size
0
reset
how to read this tab
guitar tuner
backing track
0:00
0:00
edit
Autoscroll
slow
fast
+/-
esc
set tempo
stop
Tool
The Pot
10,000 Days

By - Dezium

It took a long while to come up with this tab, especially the interlude. Adam is a 
guitarist.
I did the best I could, it should be fairly close...Enjoy

Tuning - Dropped-D

h  - Hammer-On
p  - Pull-Off
b  - Bend
() - Fret To Bend To
<  - Pick Scrapes
X  - Dead Strums
*  - Harmonic


  Intro Bass Arranged For Guitar
E|-----------------------------------------------------------|
B|-----------------------------------------------------------|
G|-----------------------------------------------------------| 6x
D|-----------------------------------------------------------|
A|-----------------------------------------------------------|
D|-0-10p0-0-12p0-0-10p0-0-0---0-10p0-0-12p0-0-10p0-12p0-0-10-|

  [0:25]
E|----------|
B|----------|
G|-Feedback-
D|----------|
A|----------|
D|----------|

  [0:38]
E|----------------------------------------------------------------|
B|----------------------------------------------------------------|
G|----------------------------------------------------------------|
D|------0-------0--------0--------------0-------0--------0--------|
A|------------------------------3-------------------------------3-|
D|--0-0----00-0---00-0-0---00-3-----0-0----00-0---00-0-0---00-3---|
    . .    .. .   .. . .   ..       . .    .. .   .. . .   ..

  [0:47]
E|--------------------------------------------------|
B|--------------------------------------------------|
G|--------------------------------------------------|
D|---10b(12)------10b(12)------10b(12)------10b(12)-|
A|--------------------------------------------------|
D|-0------------0------------0------------0---------|


  [1:05]  Bass Plays
E|----------------------------------------------------------------|
B|----------------------------------------------------------------|
G|----------------------------------------------------------------| 3x
D|------0-------0--------0--------------0-------0--------0--------|
A|------------------------------3-------------------------------3-|
D|--0-0----00-0---00-0-0---00-3-----0-0----00-0---00-0-0---00-3---|

  [1:32]
E|-----------------------------------------------------------|
B|-----------------------------------------------------------|
G|-----------------------------------------------------------|
D|-----------------------------------------------------------|
A|-----------------------------------------------------------|
D|-0-10p0-0-12p0-0-10p0-0-0---0-10p0-0-12p0-0-10p0-12p0-0-10-|

  [1:41]
E|----------------------------------------------------------------|
B|----------------------------------------------------------------|
G|----------------------------------------------------------------|
D|------0-------0--------0--------------0-------0--------0--------|
A|------------------------------3-------------------------------3-|
D|--0-0----00-0---00-0-0---00-3-----0-0----00-0---00-0-0---00-3---|
    . .    .. .   .. . .   ..       . .    .. .   .. . .   ..
  [1:50]
E|---------------------------------------------------------------------|
B|---------------------------------------------------------------------|
G|---------------------------------------------------------------------|
D|-----5-------------------------------------0-------0--------0--------|
A|-------------3-----------10-------8--------------------------------3-|
D|-5-5---3-3-3----10-10-10----5-5-5------0-0----00-0---00-0-0---00-3---|
                                         . .    .. .   .. . .   ..

E|------------------------------------|
B|------------------------------------|
G|------------------------------------|
D|-----5----------------------X-1-1-1-|
A|-------------3-----------10-X-1-1-1-|
D|-5-5---3-3-3----10-10-10----X-1-1-1-|


E|----------------------------------------------------------------|
B|----------------------------------------------------------------|
G|----------------------------------------------------------------|
D|------0-------0--------0--------------0-------0--------0--------|
A|------------------------------3-------------------------------3-|
D|--0-0----00-0---00-0-0---00-3-----0-0----00-0---00-0-0---00-3---|
    . .    .. .   .. . .   ..       . .    .. .   .. . .   ..

  [2:13]
E|--------------------------------------------------|
B|--------------------------------------------------|
G|--------------------------------------------------|
D|---10b(12)------10b(12)------10b(12)------10b(12)-|
A|--------------------------------------------------|
D|-0------------0------------0------------0---------|

  [2:22]
E|----------------------------------------------------------------|
B|----------------------------------------------------------------|
G|----------------------------------------------------------------| 2x
D|------0-------0--------0--------------0-------0--------0--------|
A|------------------------------3-------------------------------3-|
D|--0-0----00-0---00-0-0---00-3-----0-0----00-0---00-0-0---00-3---|
    . .    .. .   .. . .   ..       . .    .. .   .. . .   ..
  [2:40]
E|-------------------------------------------|
B|-------------------------------------------|
G|-(Slightly Bend)-----------(Slightly Bend)-|
D|-------10----------0-------------10\\\\\\--|
A|-------10----------0---<<<<<<----10\\\\\\--|
D|-------10----------0---<<<<<<----10\\\\\\--|


E|--------------------------------|
B|--------------------------------|
G|--------------------------------|
D|------0-------0--------0--------|
A|------------------------------3-|
D|--0-0----00-0---00-0-0---00-3---|
    . .    .. .   .. . .   ..

E|---------------------------------------------------------------------|
B|---------------------------------------------------------------------|
G|---------------------------------------------------------------------|
D|-----5-------------------------------------0-------0--------0--------|
A|-------------3-----------10-------8--------------------------------3-|
D|-5-5---3-3-3----10-10-10----5-5-5------0-0----00-0---00-0-0---00-3---|
                                         . .    .. .   .. . .   ..

E|------------------------------------|
B|------------------------------------|
G|------------------------------------|
D|-----5----------------------X-1-1-1-|
A|-------------3-----------10-X-1-1-1-|
D|-5-5---3-3-3----10-10-10----X-1-1-1-|

  [3:11]
E|---------------------------------------------------------------------|
B|---------------------------------------------------------------------|
G|---------------------------------------------------------------------| 2x
D|---------------------------------------------------------------------|
A|-0-0-XX----5p0-XX-2-2-XX----5p0-XX-3-3-XX----5p0-XX-5-5-XX----5p0----|
D|-0-0-XX-5h7----XX-2-2-XX-5h7----XX-3-3-XX-5h7----XX-5-5-XX-5h7----XX-|


E|----------------------------------------------------------|
B|--------0-0-----------0-0-----------0-0-------------------|
G|--------0-0-----------0-0-----------0-0-------------------|
D|-0-0----0-0----2-2----0-0----3-3----0-0----5-5------------|
A|-0-0-XX-----XX-2-2-XX-----XX-3-3-XX-----XX-5-5-XX-----5p0-|
D|-0-0-XX-----XX-2-2-XX-----XX-3-3-XX-----XX-5-5-XX-5h7-----|


E|-------------------------------------------------------------|
B|--------0-0-----------0-0-----------0-0----------------------|
G|--------0-0-----------0-0-----------0-0----------------------|
D|-0-0----0-0----2-2----0-0----3-3----0-0----5-5----8-8----3-3-|
A|-0-0-XX-----XX-2-2-XX-----XX-3-3-XX-----XX-5-5-XX-8-8-XX-3-3-|
D|-0-0-XX-----XX-2-2-XX-----XX-3-3-XX-----XX-5-5-XX-8-8-XX-3-3-|

  [3:40]
E|-------------------|---------------------------------------|-------------------|
B|-------------------|---------------------------------------|-------------------|
G|--------8x---------|-------------------4x------------------|--------4x---------|
D|-------------------|---------------------------------------|-------------------|
A|-------------12----|-------------12------------------10----|-------------12----|
D|-0-0-0h10h12----12-|-0-0-0h10h12----12---0-0-0h10h12----12-|-0-0-0h10h12----12-|
   . . . .. ..    ..   . . . .. ..    ..   . . . .. ..    ..   . . . .. ..

  [4:10]
E|-------------------------------|
B|-------------------------------|
G|-------------------------------| 2x
D|-0-0---------------8-----5-----|
A|-0-0---------12----8-8-8-5-7---|
D|-0-0-0h10h12----12-8-----5---8-|

  [4:17]
E|--------------------------------|
B|--------------------------------|
G|--------------------------------| 2x
D|--------------------------------|
A|-/10-0-10/12-7-0-7/8-8-----7----|
D|-/10-0-10/12-7-0-7/8---5h7---8--|

  [4:24]
E|------------------------------------------------------------------|
B|------------------------------------------------------------------|
G|------------------------------------------------------------------|
D|------------------------------------------------------------------|
A|------------------------------------------------------------------|
D|-12-10-13-12-X-X-12-X-13-12--12-X-10-12-13-0-12-10-0-13-0-12p10p0-|
   .. .. .. ..     ..   .. ..  ..   .. .. .. . .. .. . .. . .. .. .

E|----------------------------------------------------------------------------|
B|----------------------------------------------------------------------------|
G|----------------------------------------------------------------------------|
D|----------------------------------------------------------------------------|
A|----------------------------------------------------------------------------|
D|-12-0-10-0-13-12-0-0-12-0-13-0-12--0-12-0-10-0-12-13-0-12-10-0-13-0-12p10p0-|
   .. . .. . .. .. . . .. . .. . ..  . .. . .. . .. .. . .. .. . .. . .. .. .

  [4:46]
E|-----------------------------------------------------------------------|
B|-----------------------------------------------------------------------|
G|-----------------------------------------------------------------------|
D|-------------------------------------------------*---------------------|
A|-------------------------------3h5---------------5-----------------3h5-|
D|-0-00-00-0-00-00-00-00-000-3h5------000000000000----0000000000-3h5-----|
   . .. .. . .. .. .. .. ...          ............    ..........

E|-----------------------------------------------|
B|-----------------------------------------------|
G|-----------------------------------------------|
D|-------------*-*-------------3h5-----------0~~-|
A|-------------3h5-----3----3h5---3h5--------0~~-|
D|-0-0-0-0-0-0-----3h5---3h5---------3h5-3h5-0~~-|
   . . . . . .
  [5:10]
E|---------------------------------------------------------------------|
B|---------------------------------------------------------------------|
G|---------------------------------------------------------------------|
D|------0-------0--------0---------10-------0-------0--------0---------|
A|------------------------------3--10-------------------------------3--|
D|--0-0----00-0---00-0-0---00-3----10---0-0----00-0---00-0-0---00-3----|
    . .    .. .   .. . .   ..           . .    .. .   .. . .   ..
  [5:23]
E|---------------------------------------------------------------------|
B|---------------------------------------------------------------------|
G|---------------------------------------------------------------------|
D|-----5-------------------------------------0-------0--------0--------|
A|-------------3-----------10-------8--------------------------------3-|
D|-5-5---3-3-3----10-10-10----5-5-5------0-0----00-0---00-0-0---00-3---|


E|------------------------------------|
B|------------------------------------|
G|------------------------------------|
D|-----5----------------------X-1-1-1-|
A|-------------3-----------10-X-1-1-1-|
D|-5-5---3-3-3----10-10-10----X-1-1-1-|

  [5:37]
E|---------------------------------------------------------------------|
B|---------------------------------------------------------------------|
G|---------------------------------------------------------------------| 2x
D|---------------------------------------------------------------------|
A|-0-0-XX----5p0-XX-2-2-XX----5p0-XX-3-3-XX----5p0-XX-5-5-XX----5p0----|
D|-0-0-XX-5h7----XX-2-2-XX-5h7----XX-3-3-XX-5h7----XX-5-5-XX-5h7----XX-|

  [5:51]
E|-------------------------------------------------------------|
B|--------0-0-----------0-0-----------0-0----------------------|
G|--------0-0-----------0-0-----------0-0----------------------|
D|-0-0----0-0----2-2----0-0----3-3----0-0----5-5----8-8----3-3-|
A|-0-0-XX-----XX-2-2-XX-----XX-3-3-XX-----XX-5-5-XX-8-8-XX-3-3-|
D|-0-0-XX-----XX-2-2-XX-----XX-3-3-XX-----XX-5-5-XX-8-8-XX-3-3-|

  [5:58]
E|-----------------------------------------------|
B|-----------------------------------------------|
G|-----------------------------------------------| 2x
D|---------------------------------------------1-|
A|-5---------3---------5-----------3-5-------1---|
D|---0-0-0-0---0-0-0-0---0-0-0-0-3-----0-0-3-----|
     . . . .   . . . .   . . . .       . .

E|-----------------------------------|
B|-----------------------------------|
G|-----------------------------------|
D|---------------------------------1-|
A|-5-----3-----5-------3-5-------1---|
D|---0-0---0-0---0-0-3-----0-0-3-----|
     . .   . .   . .       . .

E|-----------------------------------------------|
B|-----------------------------------------------|
G|-----------------------------------------------|
D|---------------------------------------------1-|
A|-5---------3---------5-----------3-5-------1---|
D|---0-0-0-0---0-0-0-0---0-0-0-0-3-----0-0-3-----|
     . . . .   . . . .   . . . .       . .
[6:21]
End

            
            
Suggest correction
Creating personal tab
Creating personal tab
You can edit any tab online and save it as your Personal.

You can edit, replace or remove any tab part or add personal notes – all changes will be seen only by you.

Personal tabs can be accessed anytime from any device, even offline.
Learn more »
Give kudos to tab author, rate the tab!
1 2 3 4 5
comments
print report bad tab
guest
You may want to rate the tab now too:
select rating
Wanna post a correction for this tab? Suggest correction