Oops, an error
Loading. Please wait.

Vicarious intro bass

version 1
version 1

Intro

Whole song

by Tool
8,363 views 6 this week
3 commentsread comments
1 2 3 4 5
x 8
add to favorites
×
Save as Personal and add changes to this tab that will be seen only by you. Learn more ›
×
You can save this tab as Personal to edit and correct it or add notes. All changes will be seen only by you. Learn more »
launch autoscroll
font size
0
reset
guitar tuner
backing track
0:00
0:00
edit
Autoscroll
slow
fast
+/-
esc
set tempo
stop
-------------------------------------------------------------------------------
			     Vicarious - Tool
-------------------------------------------------------------------------------

This is my first tab and it’s how I play the song. I’ve only done the intro and 
verse for now. More will come.
Any comments or improvements would be appreciated.

Tabbed By: Andre K
e-mail: andre.k47@hotmail.com

Tuning: Drop D

Intro:

G|-7-----5-----7-----9-----5-----7-----10-----9-----5-----9-----5-----7-----5-----|
D|---0-0---0-0---0-0---0-0---0-0---0-0----0-0---0-0---0-0---0-0---0-0---0-0---0-0-| x3
A|--------------------------------------------------------------------------------|
D|--------------------------------------------------------------------------------|

G|-7-----5-----7-----9-----5-----7-----10-----9-----5-----9-----5-----7---7--9~~~~| <---Let it ring
D|---0-0---0-0---0-0---0-0---0-0---0-0----0-0---0-0---0-0---0-0---0-0---0---10~~~~| <---  out
A|--------------------------------------------------------------------------------|      
D|--------------------------------------------------------------------------------|

Verse:

G|---------------------------|
D|---------------------------|
A|---------------------------|
D|-0-0h12--0-0h10--0-0h14h15-|


Well that's pretty much all you need to get started on this song, so good luck.

            
            
Suggest correction
Creating personal tab
Creating personal tab
You can edit any tab online and save it as your Personal.

You can edit, replace or remove any tab part or add personal notes – all changes will be seen only by you.

Personal tabs can be accessed anytime from any device, even offline.
Learn more »
comments
print report bad tab
3 comments total.
0 reply
Maitinin 19,543 Jul 08, 2009 07:49 AM

the whole intro riff is played on the D-string with pull-offs, and the following main riff is also a bit off...

0 reply
NoaOno 47 Jul 05, 2010 09:26 AM, edited on May 15 2016, 02:24 pm

.

0 reply
Systolic 167 Jan 08, 2013 11:59 PM

Obviously this isn't "right" as it definitely played on the D String with pull-offs and such. But I actually like this way quite a bit. 3 stars.

guest
You may want to rate the tab now too:
select rating
Wanna post a correction for this tab? Suggest correction