Oops, an error
Loading. Please wait.

Vicarious tab

version 3
by Tool
348,748 views 417 this week
52 commentsread comments
1 2 3 4 5
x 110
add to favorites
×
Save as Personal and add changes to this tab that will be seen only by you. Learn more ›
×
You can save this tab as Personal to edit and correct it or add notes. All changes will be seen only by you. Learn more »
launch autoscroll
font size
0
reset
how to read this tab
guitar tuner
backing track
0:00
0:00
edit
Autoscroll
slow
fast
+/-
esc
set tempo
stop
Author
Tool - Vicarious
Album: 10,000 Days


Tabbed by: Eric
two2twelve@gmail.com


Tuning: D A D G B E
 

0:00

(light distortion)

         ^           ^       ^                       ^         ^         ^
e|--------------------------------------------------------------------------------------|
B|--------------------------------------------------------------------------------------|
G|-------5-----------7---7---5-----------------------5---------5---------5-----------7--|
D|---7-----7---7---5-----------7---7---5---------7-----7---7-----7---7-----7---7---5----|
A|-5---8-----5---5-----5---5-----5---8---7-----5---5-----5---5-----5---5-----5---8------| x3
E|D-------------------------------------------------------------------------------------|

        ^           ^       ^                       ^         ^         ^
E|---------------------------------------------------------------------------------------|
B|---------------------------------------------------------------------------------------|
G|------5-----------7---7---5-----------------------5---------5---------5----------------|
D|--7-----7---7---5-----------7---7---5---------7-----7---7-----7---7-----7---7---5------|
A|5---8-----5---5-----5---5-----5---8---7-----5---5-----5---5-----5---5-----5---8---7~---|
D|---------------------------------------------------------------------------------------|
                                                          release palm mute -------------|


0:46

(distortion)

e|----------------------------------|
B|----------------------------------|
G|----------------------------------|
D|----------------------------------|
A|---------------------------15-----| x4
E|D-0--0-12-0--0-10-0--0-h15--------|

0:56

e|--------------------------------------|
B|--------------------------------------|
G|--------------------------------------|
D|--------------------------------------|
A|-13-12-12-12~-12-12-13---------15-----| x4
E|D--0--0--0--0---0--0--0--0-h15--------|
        pm     pm


e|------|
B|-15~--|
G|-14~--|
D|-12~--|
A|-12~--|
E|D-12~-|


"eye on the tv"

Rest - 8 Bars


*feedback*

1:28

e|-----------------------------------|
B|-----------------------------------|
G|-----------------------------------|
D|-----------------------------------|
A|-13-12-12-12~-12-12-13---------15--| x2
E|D--0--0--0--0---0--0--0--0-h15-----|
        pm     pm


e|--------------------------------------------------------------------------|
B|--------------------------------------------------------------------------|
G|--------------------------------------------------------------------------|
D|------------------------------15----10-10--0-xx-3-0-xx-5-0-xx-3-0---------|
A|-13-12-12-12~-12-12-13--------15----10-10--0-xx-3-0-xx-5-0-xx-3-0---------|
E|D--0--0--0--0---0--0--0--0-h15-15-0-h10-10--0-xx-3-0-xx-5-0-xx-3-0-7-8~---|
        pm     pm

1:39

E|-------------------------------|----------------------------------|
B|-------------------------------|----------------------------------|
G|-------------------------------|----------------------------------|
D|-------------------------------|----------------------------------|
A|---------------------------15--|------------------------------15--|
D|-0--0-12-0--0-10-0--0-h15------|-0--0-12-0--0-10p0-000--0-h15-----|
                                              pm- - - -|

e|-------------------------------|---------------------------------------|
B|-------------------------------|-------------------------------15~-----|
G|-------------------------------|-------------------------------14~-----|
D|-------------------------------|-------------------------------12~-----|
A|---------------------------15--|---------------------------15--12~-----|
E|D-0--0-12-0--0-10-0--0-h15------|-0--0-12-0--0-10-0--0-h15------12~----|


"don't look at me like"

Rest - 4 Bars


2:00

(light distortion, delay)

        ^           ^       ^           ^          ^           ^      ^
E|---------------------------------------------------------------------------------------|
B|---------------------------------------------------------------------------------------|
G|-------5-----------7-------5-----------7-(7)------5-----------7-------5---------5------|
D|---7-----7---7---5-----7-----7---7---5--------7-----7---7---5-----7-----7---7-----7~---|
A|-5---5-----5---5-----5---5-----5---5--------5---5-----5---5-----5---5-----5---5--------|
D|---------------------------------------------------------------------------------------|
                                                       release palm mute ---------------|


2:11

 (distortion)
                                 x2
e|-----------------------------------|-------------------------------------------|
B|-----------------------------------|-------------------------------------------|
G|-----------------------------------|-------------------------------------------|
D|-----------------------------------|------------------------------15----10-----|
A|-13-12-12-12~-12-12-13---------15--|-13-12-12-12~-12-12-13--------15----10-----|
E|D--0--0--0--0---0--0--0--0-h15------|--0--0--0--0---0--0--0--0-h15-15-0-h10----|
        pm     pm                           pm    pm


e|--------------------------------------|
B|--------------------------------------|
G|--------------------------------------|
D|--------------------------------------|
A|-13-12-12-12~-12-12-13---------15-----|
E|D--0--0--0--0---0--0--0--0-h15--------|
        pm     pm


 2:22
 "cause i..."
e|----------------------------------------------------------------------|
B|----------------------------------------------------------------------|
G|----------------------------------------------------------------------|
D|----------------101010--0--0h3-3-0h5-5--0--0---------0--------5-0-----|
A|-777-888-7-7-7--101010--0--0h3-3-0h5-5--0--0-------3-0------5-5-0-----| x2
E|D-333-333-5-5-5--101010--0--0h3-3-0h5-5--0--0-0h3h5---0-0h3h5--5-0----|
                                         pm          pm

e|---------------------------|
B|---------------------------|
G|---------------------------|
D|----------------101010-----|
A|-777-888-7-7-7--101010-----|
E|D-333-333-5-5-5--101010----|


2:39

e|----------------------------------|
B|----------------------------------|
G|----------------------------------|
D|----------------------------------|
A|---------------------------15-----| x3
E|D-0--0-12-0--0-10-0--0-h15--------|


2:47

(palm muted)

 "why can't we just admit it"
e|------------------------------------------------------------------|
B|------------------------------------------------------------------|
G|------------------------------------------------------------------|
D|------------------------------------------------------------------|
A|------------------------------------------------------------------|
E|D-0000-0-00-00---000---0000-0-00-00---000---0000-0-00-00---000----|


e|--------------------------------------------|
B|--------------------------------------------|
G|--------------------------------------------|
D|--------------------------------------------|
A|--------------------------------------------|
E|D-0000-0-00-00---0000-0000-0-00-00---000----|


e|---------------------------------------------------------------------|
B|---------------------------------------------------------------------|
G|---------------------------------------------------------------------|
D|---------------------------------------------------------------------|
A|---------------------------------------------------------------------|
E|D-0000-0-00-00---000----0000-0-00-00---000----0000-0-00-00---0000----|


 3:08
 "cause i..."
e|----------------------------------------------------------------------|
B|----------------------------------------------------------------------|
G|----------------------------------------------------------------------|
D|----------------101010--0--0h3-3-0h5-5--0--0---------0--------5-0-----|
A|-777-888-7-7-7--101010--0--0h3-3-0h5-5--0--0-------3-0------5-5-0-----| x2
E|D-333-333-5-5-5--101010--0--0h3-3-0h5-5--0--0-0h3h5---0-0h3h5--5-0----|
                                         pm          pm

e|---------------------------|
B|---------------------------|
G|---------------------------|
D|----------------101010-----|
A|-777-888-7-7-7--101010-----|
E|D-333-333-5-5-5--101010----|


3:26
(palm muted)

 "why can't we just admit it"
e|----------------------------------------------------------------------|
B|----------------------------------------------------------------------|
G|----------------------------------------------------------------------|
D|-0000-0-00---00---0000-0-00---00--0000-0-00---00---0000-0-00---00-----|
A|-0000-0-00---00---0000-0-00---00--0000-0-00---00---0000-0-00---00-----| x2
E|D-0000-0-00---00---0000-0-00---00--0000-0-00---00---0000-0-00---00----|


3:47

(tremolo w/ wah opened)

e|------------------------------------|------------------------------------------------|
B|------------------------------------|------------------------------------------------|
G|------------------------------------|------------------------------------------------|
D|------------------------------------|------------------------------------------------|
A|-5~--6~--15~--13~--5~--6~--15~--13~-|-5~--6~--15~--13~--5~--6~--15~--13~--//17b~-----|
E|D------------------------------------|-----------------------------------------------|


 4:08
 "part vamp..."                                                                        x2
e|---------------------------------------------------------------------------------------|
B|---------------------------------------------------------------------------------------|
G|---------------------------------------------------------------------------------------|
D|---------------------------------------------------------------------------------------|
A|---------5-------5----3-----5/7--------3----5------8-------7---3-----5/7-------3----5--|
E|D-PM-0000--0-00-0---00---0000----0-00-0---00---0000--0-00-0--00---0000---0-00-0---00---|


e|----------------------------------------------------------|
B|----------------------------------------------------------|
G|----------------------------------------------------------|
D|----------------------------------------------------------|
A|---------5-------5------0h3h5------7--------3------0h3h5--|
E|D-PM-0000--0-00-0---0h3h5------0000---0-00-0---0h3h5------|

                                                         x2
e|---------------------------------------------------------|
B|---------------------------------------------------------|
G|---------------------------------------------------------|
D|---------------------------------------------------------|
A|------8-------7------0h3h5-----7---------3--------0h3h5--|
E|-0000--0-00-0---0h3h5------0000---0-00-0-----0h3h5-------|


4:50

(light distortion, delay)

         ^           ^       ^                       ^         ^         ^
e|--------------------------------------------------------------------------------------|
B|--------------------------------------------------------------------------------------|
G|-------5-----------7---7---5-----------------------5---------5---------5-----------7--|
D|---7-----7---7---5-----------7---7---5---------7-----7---7-----7---7-----7---7---5----|
A|-5---8-----5---5-----5---5-----5---8---7-----5---5-----5---5-----5---5-----5---8------| x4
E|--------------------------------------------------------------------------------------|


5:42

 "credulous at best..."
         ^                x3       ^          ^              ^                x4
e|--------------------------|------------------------|-----------------------------|
B|--------------------------|------------------------|-----------------------------|
G|-------5------------------|-------5---------(5)----|-------5---------------------|
D|---7-----7---7-------5-7--|---7-----7---7-------7--|---7-----7---7-------5-7-----|
A|-5---5-----5---5-5-7------|-5---5-----5---5--------|-5---5-----5---5-5-7---------|
E|--------------------------|------------------------|-----------------------------|


                                                       x3
e|------------------------------|---------------------------|
B|------------------------------|---------------------------|
G|------------------------------|---------------------------|
D|------------------------------|---------------------------|
A|------------------------------|---------------------------|
E|D-12-00-10-00-12-0-10-13-12-00-|-10-00-12-0-10-13-12-00---|
     pm    pm   pm          pm      pm   pm          pm

                                                        4x
e|--------------------------------------------------------|
B|--------------------------------------------------------|
G|--------------------------------------------------------|
D|12-0000-10-0000-12-0000-13-12-0000-10-0000-12-00-10-00--|
A|12-0000-10-0000-12-0000-13-12-0000-10-0000-12-00-10-00--|
D|12-0000-10-0000-12-0000-13-12-0000-10-0000-12-00-10-00--|
     pm-|    pm-|    pm-|       pm-|    pm-|    pm    pm

6:23

 "we all feed..."
e|--------------------------------------|
B|--------------------------------------|
G|--------------------------------------|
D|--------------------------------------|
A|-13-12-12-12~-12-12-13---------15-----| x2
E|D--0--0--0--0---0--0--0--0-h15--------|
        pm     pm


e|---------------------------------------------------------------------------|
B|---------------------------------------------------------------------------|
G|---------------------------------------------------------------------------|
D|------------------------------15----10-10--0-xx-3-0-xx-5-0-xx-3-0----------|
A|-13-12-12-12~-12-12-13--------15----10-10--0-xx-3-0-xx-5-0-xx-3-0----------|
E|D--0--0--0--0---0--0--0--0-h15-15-0-h10-10--0-xx-3-0-xx-5-0-xx-3-0-7-8~----|
        pm    pm


6:34

 "vicariously i..."
e|---------------------------------------------|
B|--------------------------------8------------|
G|--------------------------------7------------|
D|----------------101010--0--3-0--5-0--3-0-----|
A|-777-888-7-7-7--101010--0--3-0--5-0--3-0-----| x2
E|D-333-333-5-5-5--101010--0--3-0--5-0--3-0----|


e|---------------------------|
B|---------------------------|
G|---------------------------|
D|----------------101010-----|
A|-777-888-7-7-7--101010-----|
E|--333-333-5-5-5--101010----|


6:49
                                 x3
e|---------------------------------|-------------------------|
B|---------------------------------|-------------------------|
G|---------------------------------|-------------------------|
D|00-0--3-0-00-0--2-0--------------|-00-0--3-0-00-0--2--0----|
A|00-0--3-0-00-0--2-0-------0h3h5--|-00-0--3-0-00-0--2--0----|
D|00-0--3-0-00-0--2-0--0h3h5-------|-00-0--3-0-00-0--2--0----|
  pm--|   pm----|  pm  pm-------|    pm--|   pm--------------|   pm


                      x4
e|------------------------|
B|------------------------|
G|------------------------|
D|----------0h3h5---------|
A|-----0h3h5-----0h3h5----|
D|0h3h5-------------------|
 pm-----------------------|
 

************************************

| x    Dead note
| (n)  Ghost note
| h    Hammer-on
| p    Pull-off
| /    Slide up
| ~    Vibrato 
| pm - palm mute
| x - muted string
| * - Harmonics
| ^ - Not Muted

************************************

            
            
Suggest correction
Creating personal tab
Creating personal tab
You can edit any tab online and save it as your Personal.

You can edit, replace or remove any tab part or add personal notes – all changes will be seen only by you.

Personal tabs can be accessed anytime from any device, even offline.
Learn more »
comments
print report bad tab
52 comments total. Showing first comments.
+5 reply
nondeesk 51 May 28, 2006 12:31 AM

really good job on the intro, best i've seen, some of the other parts like the chorus could use some work, good job though!

+3 reply
acircularmotive 10 May 28, 2006 02:16 PM

Amazing tab! Very accurate. But takes some time to learn it correctly and catch the subtleties. Well done!

+1 reply
siemen 40 Jun 19, 2006 08:01 AM

nice tab :)

guest
You may want to rate the tab now too:
select rating
Wanna post a correction for this tab? Suggest correction