Oops, an error
Loading. Please wait.

Olympus Mons bass

by Torche
1,906 views 1 this week
no commentswrite comment
1 2 3 4 5
3 more votes to show rating
add to favorites
×
Save as Personal and add changes to this tab that will be seen only by you. Learn more ›
×
You can save this tab as Personal to edit and correct it or add notes. All changes will be seen only by you. Learn more »
launch autoscroll
font size
0
reset
guitar tuner
edit
Autoscroll
slow
fast
+/-
esc
set tempo
stop
Band: Torche (http://www.torchemusic.com/)
Song: Olympus Mons
Album: In Return EP
Tabbed by: djerzinski
Tuning: I don't know the tuning used by torche, but i play it with my 5-string (BEADG), 
it's all right.


So, here is another tab I have made,if you have any corrections or anything else just 
me at march_of_pig[@]hotmail.com .
I'm looking for some noise/alt./math rock guitar stuff, so if you know interresting 
or got some interesting links in your bookmarks , let me know.

Main Riff:

G|----------------------------------||
D|----------------------------------||
A|--------6-------------------------||
E|-7-8-10---10-8-7------------------||
B|----------------------------------||
                                     |
G|----------------------------------||
D|----------------------------------||
A|----------------------------------|| x4
E|-7--/11--8--/10--7----------------||
B|----------------------------------||
                                     |
G|----------------------------------||
D|----------------------------------||
A|----------------------------------||
E|-------6-6-6-6--6-6-6-6--6-6-6-6--||
B|--12\\----------------------------||

G|-------------------------------------|
D|-------------------------------------|
A|-------------------------------------|
E|-6-6-6-6--6-6-6-6--6-6-6-6--6-6-6-6--|
B|-------------------------------------|

and then, it's the same riff but the tempo slow down progressively.

That's it.

            
            
Suggest correction
Creating personal tab
Creating personal tab
You can edit any tab online and save it as your Personal.

You can edit, replace or remove any tab part or add personal notes – all changes will be seen only by you.

Personal tabs can be accessed anytime from any device, even offline.
Learn more »
Give kudos to tab author, rate the tab!
1 2 3 4 5
comments
print report bad tab
guest
You may want to rate the tab now too:
select rating
Wanna post a correction for this tab? Suggest correction