Oops, an error
Loading. Please wait.

City Dove tab

241 views 1 this week
no commentswrite comment
1 2 3 4 5
1 last vote to show rating
add to favorites
×
Save as Personal and add changes to this tab that will be seen only by you. Learn more ›
×
You can save this tab as Personal to edit and correct it or add notes. All changes will be seen only by you. Learn more »
launch autoscroll
font size
0
reset
how to read this tab
guitar tuner
edit
Autoscroll
slow
fast
+/-
esc
set tempo
stop
Author
https://www.youtube.com/watch?v=ukcsVrxsbL0 


[Intro]

e|---3-3-3-3-------------0-0-0-0---0-0-0-0---|
B|---3-3-3-3---7-7-7-7---0-0-0-0---1-1-1-1---|
G|---0-0-0-0---7-7-7-7---0-0-0-0---0-0-0-0---|
D|---0-0-0-0---7-7-7-7---2-2-2-2---2-2-2-2---|
A|---2-2-2-2-------------2-2-2-2---3-3-3-3---|
E|---3-3-3-3---7-7-7-7---0-0-0-0---3-3-3-3---|


[Verse 1]

e|---3-3-3-3-------------0-0-0-0---0-0-0-0---|
B|---3-3-3-3---7-7-7-7---0-0-0-0---1-1-1-1---|
G|---0-0-0-0---7-7-7-7---0-0-0-0---0-0-0-0---|
D|---0-0-0-0---7-7-7-7---2-2-2-2---2-2-2-2---|
A|---2-2-2-2-------------2-2-2-2---3-3-3-3---|
E|---3-3-3-3---7-7-7-7---0-0-0-0---3-3-3-3---|
Don't know what it's all about
But every time I look around
All I see is how we're holdin' on


e|---3-3-3-3-------------0-0-0-0---0-0-0-0---|
B|---3-3-3-3---7-7-7-7---0-0-0-0---1-1-1-1---|
G|---0-0-0-0---7-7-7-7---0-0-0-0---0-0-0-0---|
D|---0-0-0-0---7-7-7-7---2-2-2-2---2-2-2-2---|
A|---2-2-2-2-------------2-2-2-2---3-3-3-3---|
E|---3-3-3-3---7-7-7-7---0-0-0-0---3-3-3-3---|
Don't ask me what's wrong or right
I don't even know the time
All I know is I'm holdin' on


[Pre-Chorus]

e|---0-0-0-0---2-2-2-2---3-3--7-7---0-0-0-0---|
B|---1-1-1-1---3-3-3-3---3-3--7-7---1-1-1-1---|
G|---2-2-2-2---2-2-2-2---0-0--8-8---0-0-0-0---|
D|---2-2-2-2---0-0-0-0---0-0--9-9---2-2-2-2---|
A|---0-0-0-0-------------2-2--9-9---3-3-3-3---|
E|-----------------------3-3--7-7---3-3-3-3---|
I haven't figured anything out
I haven't figured anything anything anything out


[Chorus]

e|---3-3-3-3-3-3-3-3---------------------0-0-0-0-0-0-0-0---0-0-0-0-0-0-0-0---|
B|---3-3-3-3-3-3-3-3---7-7-7-7-7-7-7-7---1-1-1-1-1-1-1-1---0-0-0-0-1-1-1-1---|
G|---0-0-0-0-0-0-0-0---7-7-7-7-7-7-7-7---0-0-0-0-0-0-0-0---0-0-0-0-0-0-0-0---|
D|---0-0-0-0-0-0-0-0---7-7-7-7-7-7-7-7---2-2-2-2-2-2-2-2---2-2-2-2-2-2-2-2---|
A|---2-2-2-2-2-2-2-2---------------------3-3-3-3-3-3-3-3---2-2-2-2-3-3-3-3---|
E|---3-3-3-3-3-3-3-3---7-7-7-7-7-7-7-7---3-3-3-3-3-3-3-3---0-0-0-0-3-3-3-3---|
City dove, fly between the buildings and fences
Soft inside but rough on the edges
Waiting here for something to come just holdin' on


e|---3-3-3-3-3-3-3-3---------------------0-0-0-0-0-0-0-0---0-0-0-0-0-0-0-0---3-3-3-3---|
B|---3-3-3-3-3-3-3-3---7-7-7-7-7-7-7-7---1-1-1-1-1-1-1-1---0-0-0-0-1-1-1-1---3-3-3-3---|
G|---0-0-0-0-0-0-0-0---7-7-7-7-7-7-7-7---0-0-0-0-0-0-0-0---0-0-0-0-0-0-0-0---0-0-0-0---|
D|---0-0-0-0-0-0-0-0---7-7-7-7-7-7-7-7---2-2-2-2-2-2-2-2---2-2-2-2-2-2-2-2---0-0-0-0---|
A|---2-2-2-2-2-2-2-2---------------------3-3-3-3-3-3-3-3---2-2-2-2-3-3-3-3---2-2-2-2---|
E|---3-3-3-3-3-3-3-3---7-7-7-7-7-7-7-7---3-3-3-3-3-3-3-3---0-0-0-0-3-3-3-3---3-3-3-3---|
Oooh,
City dove, fly between the stars and the headlights
Passin' by the clouds and the street signs
Knowing that there's something to come, just holdin' on


[Verse 2]

e|---3-3-3-3-------------0-0-0-0---0-0-0-0---|
B|---3-3-3-3---7-7-7-7---0-0-0-0---1-1-1-1---|
G|---0-0-0-0---7-7-7-7---0-0-0-0---0-0-0-0---|
D|---0-0-0-0---7-7-7-7---2-2-2-2---2-2-2-2---|
A|---2-2-2-2-------------2-2-2-2---3-3-3-3---|
E|---3-3-3-3---7-7-7-7---0-0-0-0---3-3-3-3---|
I don't really know my fate
I just know I'm on my way
There will be mistakes movin' on


e|---3-3-3-3-------------0-0-0-0---0-0-0-0---|
B|---3-3-3-3---7-7-7-7---0-0-0-0---1-1-1-1---|
G|---0-0-0-0---7-7-7-7---0-0-0-0---0-0-0-0---|
D|---0-0-0-0---7-7-7-7---2-2-2-2---2-2-2-2---|
A|---2-2-2-2-------------2-2-2-2---3-3-3-3---|
E|---3-3-3-3---7-7-7-7---0-0-0-0---3-3-3-3---|
Try to get to the heart of it
Fly low but lookin' for Heaven
I know, I know I'm holding on


[Pre-Chorus]

e|---0-0-0-0---2-2-2-2---3-3--7-7---0-0-0-0---|
B|---1-1-1-1---3-3-3-3---3-3--7-7---1-1-1-1---|
G|---2-2-2-2---2-2-2-2---0-0--8-8---0-0-0-0---|
D|---2-2-2-2---0-0-0-0---0-0--9-9---2-2-2-2---|
A|---0-0-0-0-------------2-2--9-9---3-3-3-3---|
E|-----------------------3-3--7-7---3-3-3-3---|
Won't figure everything out
Never figure everything everything everything out


[Chorus]

e|---3-3-3-3-3-3-3-3---------------------0-0-0-0-0-0-0-0---0-0-0-0-0-0-0-0---|
B|---3-3-3-3-3-3-3-3---7-7-7-7-7-7-7-7---1-1-1-1-1-1-1-1---0-0-0-0-1-1-1-1---|
G|---0-0-0-0-0-0-0-0---7-7-7-7-7-7-7-7---0-0-0-0-0-0-0-0---0-0-0-0-0-0-0-0---|
D|---0-0-0-0-0-0-0-0---7-7-7-7-7-7-7-7---2-2-2-2-2-2-2-2---2-2-2-2-2-2-2-2---|
A|---2-2-2-2-2-2-2-2---------------------3-3-3-3-3-3-3-3---2-2-2-2-3-3-3-3---|
E|---3-3-3-3-3-3-3-3---7-7-7-7-7-7-7-7---3-3-3-3-3-3-3-3---0-0-0-0-3-3-3-3---|
City dove, fly between the buildings and fences
Soft inside but rough on the edges
Waiting here for something to come just holdin' on


e|---3-3-3-3-3-3-3-3---------------------0-0-0-0-0-0-0-0---0-0-0-0-0-0-0-0---|
B|---3-3-3-3-3-3-3-3---7-7-7-7-7-7-7-7---1-1-1-1-1-1-1-1---0-0-0-0-1-1-1-1---|
G|---0-0-0-0-0-0-0-0---7-7-7-7-7-7-7-7---0-0-0-0-0-0-0-0---0-0-0-0-0-0-0-0---|
D|---0-0-0-0-0-0-0-0---7-7-7-7-7-7-7-7---2-2-2-2-2-2-2-2---2-2-2-2-2-2-2-2---|
A|---2-2-2-2-2-2-2-2---------------------3-3-3-3-3-3-3-3---2-2-2-2-3-3-3-3---|
E|---3-3-3-3-3-3-3-3---7-7-7-7-7-7-7-7---3-3-3-3-3-3-3-3---0-0-0-0-3-3-3-3---|
City dove, fly between the stars and the headlights
Passin' by the clouds and the street signs
Knowing that there's something to come, just holdin' on


e|---3-3-3-3-3-3-3-3---------------------0-0-0-0-0-0-0-0---0-0-0-0-0-0-0-0---|
B|---3-3-3-3-3-3-3-3---7-7-7-7-7-7-7-7---1-1-1-1-1-1-1-1---0-0-0-0-1-1-1-1---|
G|---0-0-0-0-0-0-0-0---7-7-7-7-7-7-7-7---0-0-0-0-0-0-0-0---0-0-0-0-0-0-0-0---|
D|---0-0-0-0-0-0-0-0---7-7-7-7-7-7-7-7---2-2-2-2-2-2-2-2---2-2-2-2-2-2-2-2---|
A|---2-2-2-2-2-2-2-2---------------------3-3-3-3-3-3-3-3---2-2-2-2-3-3-3-3---|
E|---3-3-3-3-3-3-3-3---7-7-7-7-7-7-7-7---3-3-3-3-3-3-3-3---0-0-0-0-3-3-3-3---|
Ooohh, ooooh yeah, oooh, knowing that there's something to come, just holdin' on ooon...


e|---3-3-3-3-3-3-3-3---------------------0-0-0-0-0-0-0-0---0-0-0-0-0-0-0-0---3---|
B|---3-3-3-3-3-3-3-3---7-7-7-7-7-7-7-7---1-1-1-1-1-1-1-1---0-0-0-0-1-1-1-1---3---|
G|---0-0-0-0-0-0-0-0---7-7-7-7-7-7-7-7---0-0-0-0-0-0-0-0---0-0-0-0-0-0-0-0---0---|
D|---0-0-0-0-0-0-0-0---7-7-7-7-7-7-7-7---2-2-2-2-2-2-2-2---2-2-2-2-2-2-2-2---0---|
A|---2-2-2-2-2-2-2-2---------------------3-3-3-3-3-3-3-3---2-2-2-2-3-3-3-3---2---|
E|---3-3-3-3-3-3-3-3---7-7-7-7-7-7-7-7---3-3-3-3-3-3-3-3---0-0-0-0-3-3-3-3---3---|
Fly between the stars and the headlights
Passin' by the clouds and the street signs
Knowing that there's something to come, just holdin' on, ooonnnn...

            
            
Suggest correction
Creating personal tab
Creating personal tab
You can edit any tab online and save it as your Personal.

You can edit, replace or remove any tab part or add personal notes – all changes will be seen only by you.

Personal tabs can be accessed anytime from any device, even offline.
Learn more »
Give kudos to tab author, rate the tab!
1 2 3 4 5
comments
print report bad tab
guest
You may want to rate the tab now too:
select rating
Wanna post a correction for this tab? Suggest correction