Oops, an error
Loading. Please wait.

Hollow Top Of The Tower tab

2,039 views 6 this week
2 commentsread comments
1 2 3 4 5
x 5
add to favorites
×
Save as Personal and add changes to this tab that will be seen only by you. Learn more ›
×
You can save this tab as Personal to edit and correct it or add notes. All changes will be seen only by you. Learn more »
launch autoscroll
font size
0
reset
how to read this tab
guitar tuner
edit
Autoscroll
slow
fast
+/-
esc
set tempo
stop
-------------------------------------------------------------------------------
                             Hollow (Top Of The Tower) - Tori Kelly
-------------------------------------------------------------------------------

This tab is based on her performance Hollow (Top Of The Tower). A video she posted on 
Jan 29, 2016.
https://www.youtube.com/watch?v=UC_IcHxQhnY
I'm not showing how she plays it exactly, but if you use the video with this tab, you 
can figure out the
picking paterns yourself.

At the beginning of the song she has her capo on the 4th fret. When she's nearing the 
end of the song
she gets rid of it and continues the song without a capo.
She has tuned her guitar a half step down.
Tuning: Instead of E A D G B e - D# G# C# F# A# D#

But if you don't know how to tune your guitar a step down you could also just put the capo
on the third fret instead of the fourth.

Capo 4th fret

[Intro]
D#|--1-----------------|
A#|--3----1----1----1--|
F#|--2----0----0--0-2--|
C#|--0----2----2--2-3--|
G#|-------0----3-------|
D#|-----------------1--|

[Verse 1]
D#|--1-----------------|
A#|--3----1----1----1--|
F#|--2----0----0--0-2--|
C#|--0----2----2--2-3--|
G#|-------0----3-------|
D#|-----------------1--|
 2x
I don't wanna be the last man standing
I don't wanna be the lonely one
Picking petals when the party's over
No, it's not any fun

[Pre-Chorus 2]
D#|--1-----------------|
A#|--3----1----1----1--|
F#|--2----0----0--0-2--|
C#|--4----2----2--2-3--|
G#|-------0----3-------|
D#|-----------------1--| 2x
Cause I'm fragile
And you know this

[Chorus]
D#|--3----0----0----1--|--3----0----0----1--|
A#|--1----1----1----1--|--1----1----1----1--|
F#|--2----0----0----2--|--2----0----0----2--|
C#|--3----2----2----3--|--3----2----2----3--|
G#|-------0----3----3--|-------0----3----3--|
D#|-----------------1--|-----------------1--|
So hold me
Wrap me in love, fill up my cup
Empty and only your love can fill up my cup

D#|--1---3---0----0----1--|--1---3---0----0----1--|
A#|--1---3---5----1----1--|--1---3---5----1----1--|
F@|--2---4---5----0----2--|--2---4---5----0----2--|
C#|--3---5---5----2----3--|--3---5---5----2----3--|
G#|--3---5--------3----3--|--3---5--------3----3--|
D#|--1---3---5---------1--|--1---3---5---------1--|
Cause I'm hollow
Yeah, I'm hollow, oh oh oh
Cause I'm hollow
Yeah, I'm hollow, oh oh oh

[Verse 2]
D#|--1-----------------|
A#|--3----1----1----1--|
F#|--2----0----0--0-2--|
C#|--0----2----2--2-3--|
G#|-------0----3-------|
D#|-----------------1--| 2x
I don't wanna be the first one folding
I don't wanna be the joker heart
Tell me, darling, will you understand me?
And not show me your cards?

[Pre-Chorus 2]
D#|--1----0----0----1--|
A#|--3----1----1----1--|
f#|--2----0----0----2--|
C#|--4----2----2----3--|
G#|-------0----3----2--|
D#|-----------------1--| 2x
Cause I'm paper-thin
And you, you make me whole again

[Chorus]
D#|--1---3---0----0----1--|--1---3---0----0----1--|
A#|--1---3---5----1----1--|--1---3---5----1----1--|
F@|--2---4---5----0----2--|--2---4---5----0----2--|
C#|--3---5---5----2----3--|--3---5---5----2----3--|
G#|--3---5--------3----3--|--3---5--------3----3--|
D#|--1---3---5---------1--|--1---3---5---------1--|
So hold me
Wrap me in love, fill up my cup
Empty and only your love can fill up my cup

D#|--1---3---0----0----1--|--1---3---0----0----1--|
A#|--1---3---5----1----1--|--1---3---5----1----1--|
F@|--2---4---5----0----2--|--2---4---5----0----2--|
C#|--3---5---5----2----3--|--3---5---5----2----3--|
G#|--3---5--------3----3--|--3---5--------3----3--|
D#|--1---3---5---------1--|--1---3---5---------1--|
Cause I'm hollow
Yeah, I'm hollow, oh oh oh
Cause I'm hollow
Yeah, I'm hollow, oh oh oh

[Bridge]
D#|--1-----------------|
A#|--3----1----1----1--|
F#|--2----0----0--0-2--|
C#|--0----2----2--2-3--|
G#|-------0----3-------|
D#|-----------------1--| 2x
I confess (yeah), my weakness
Til you pick up the parts that are broken
Pour out your perfection on me now

[Chorus]
And hold me
Wrap me in love, fill up my cup

(this is the part that she sing without the guitar and gets rid of the capo. But this part only)
 sound good if you have tuned you guitar down to D# G# C# F# A# D#, otherwise it won't sound right.)
D#|--0----0---0----0----0--|
A#|--0----0---0----0----0--|
F#|--2----4---6----9----2--|
C#|--2----4---6----9----2--|
G#|--0----2---4----7----0--|
D#|------------------------|
Empty, cause only your love can fill up my cup

D#|--0----0---0----0----0--|
A#|--0----0---0----0----0--|
F#|--2----4---6----9----2--|
C#|--2----4---6----9----2--|
G#|--0----2---4----7----0--|
D#|------------------------|2x
So hold me
Wrap me in love, fill up my cup
Emptyyyyy, oh oh oh oh

D#|--0----0---0----0----0--|
A#|--0----0---0----0----0--|
F#|--2----4---6----9----2--|
C#|--2----4---6----9----2--|
G#|--0----2---4----7----0--|
D#|------------------------|2x
Cause I'm hollow, oh oh oh
Cause I'm hollow
Yeah, I'm hollow,
oh oh oh oh oh oh oh oh oh oh, hoee oh

D#|--0----0---0----0----0--|
A#|--0----0---0----0----0--|
F#|--2----4---6----9----2--|
C#|--2----4---6----9----2--|
G#|--0----2---4----7----0--|
D#|------------------------|2x
I'm hollow
Cause, I'm hollow, oh oh oh

            
            
Suggest correction
Creating personal tab
Creating personal tab
You can edit any tab online and save it as your Personal.

You can edit, replace or remove any tab part or add personal notes – all changes will be seen only by you.

Personal tabs can be accessed anytime from any device, even offline.
Learn more »
comments
print report bad tab
2 comments total.
0 reply
frzsk 222 Mar 01, 2016 04:01 AM

I think this should be
Intro
D#|--1------------------|
A#|--3----1----1----1---|
F#|--2----0----0--0-2---|
C#|--4----2----2--2-3---|
G#|-------0----3--------|
D#|-----------------1---|
this. and so on for every Dm plucks

Intro
D#|--1------------------|
A#|--3----1----1----1---|
F#|--2----0----0--0-2---|
C#|--0----2----2--2-3---|
G#|-------0----3--------|
D#|-----------------1---|

0 reply
Jeetjexx 478 Jul 19, 2016 07:07 AM

You're totally right! Thanks for the tip. I'll change it immediately

guest
You may want to rate the tab now too:
select rating
Wanna post a correction for this tab? Suggest correction