Oops, an error
Loading. Please wait.

I Was Made For Loving You chords

version 5
version 5
10,168 views 48 this week
no commentswrite comment
1 2 3 4 5
x 11
add to favorites
×
Save as Personal and add changes to this tab that will be seen only by you. Learn more ›
×
You can save this tab as Personal to edit and correct it or add notes. All changes will be seen only by you. Learn more »
launch autoscroll
font size
0
reset
transpose
0
reset
display chords
guitar tuner
edit
Autoscroll
slow
fast
+/-
esc
set tempo
stop
Strumming
There is no strumming pattern for this song yet. and get +5 IQ
Standard Tuning
Capo 2

[Chords]
   (EADGBE)
F : 133211
C : x32010
G : 320003
Am: x02210
? : x20010
Dm: xx0231

[Intro]
     F      C          G          Am
e|------------------------------------------------------------------------
B|-----------------1--------0----------1---------1---------1---------1----
G|--0h2-0------0--------0----------2---------2---------2---------2--------
D|--3------0h2---2--------0------2---2-----2---2-----2---2-----2---2------
A|---------3-------------------0---------0---------0---------0------------
E|--------------------3---------------------------------------------------

          F    C          G        C
e|------------------------------------------------------------------------|
B|-----------------1--------0----------1---------1---------1---------1----|
G|--0h2-0------0--------0----------0---------0---------0---------0--------|
D|--3------0h2---2--------0------2---2-----2---2-----2---2-----2---2------|
A|---------3-------------------3---------3---------3---------3------------|
E|--------------------3---------------------------------------------------|

[Verse]
    C                              ?           C
e|-------------------------------------------------------------------------
B|----------1---------1---------1----------1----------1---------1---------1
G|------0---------0---------0----------0----------0---------0---------0----
D|----2---2-----2---2-----2---2------0---0------2---2-----2---2-----2---2--
A|--3---------3---------3----------2----------3---------3---------3--------
E|-------------------------------------------------------------------------

    ?          Am                 F                  C
e|------------------------------------------------------------------------|
B|----------1---------1--------1----------1-------1----------1---------1--|
G|------0----------2--------2-----0h2-2-------2----------0---------0------|
D|----0---0------2---2----2---2---3-----3---3---3------2---2-----2---2----|
A|--2----------0--------0----------------------------3---------3----------|
E|------------------------------------------------------------------------|

e|-----------------------|
B|----------1---------1--|
G|------0---------0------| x2
D|----2---2-----2---2----|
A|--3---------3----------|
E|-----------------------|

[Verse 1]
(Picking)
  C                  ?       C
A dangerous plan, just this time
  ?           Am  F             C 
A stranger’s hand clutched in mine
  C                    ?         C
I’ll take this chance, so call me blind
    ?         Am  F       C
I’ve been waiting all my life

[Pre-chorus 1] 
(Switch to strumming: DDU DUDU)
Dm                   F
   Please don’t scar this young heart
Dm                  G 
   Just take my hand

[Chorus]
(Strumming: DDU DU)
F     C        G       C 
I was made for loving you
Even though we may be
F        C           G       Am 
Hopeless hearts just passing through
Every bone screaming
F       C          G        Am 
I don’t know what we should do
All I know is darling
F     C        G      C 
I was made for loving you

[Verse 2]
(Repeat picking pattern from verse 1)
  C                ?       C
Hold me close through the night
  ?          Am  F            C 
Don’t let me go, we’ll be alright
 C                   ?         C
Touch my soul and hold it tight
    ?         Am  F       C
I’ve been waiting all my life

[Pre-chorus 2] 
(Switch to strumming: DDU DUDU) 
Dm             F 
   I won’t scar your young heart
Dm                  G 
   Just take my hand

[Chorus] 
(Strumming: DDU DU)
F     C        G       C 
I was made for loving you
Even though we may be
F        C           G       Am 
Hopeless hearts just passing through
Every bone screaming
F       C          G        Am 
I don’t know what we should do
All I know is darling
F     C        G      C 
I was made for loving you

[Bridge]
(Strumming: DDU DU)
F      G     Am 
Please don’t go
          F       G  Am 
I’ve been waiting so long
F            G    Am         D 
Oh you don’t even know me at all
    F     C        G      C
But I was made for loving you

[Chorus] 
(Strumming: DDU DU)
F     C        G       C 
I was made for loving you
Even though we may be
F        C           G       Am 
Hopeless hearts just passing through
Every bone screaming
F       C          G        Am 
I don’t know what we should do
All I know is darling
F     C        G      C 
I was made for loving you

            
            
Suggest correction
Creating personal tab
Creating personal tab
You can edit any tab online and save it as your Personal.

You can edit, replace or remove any tab part or add personal notes – all changes will be seen only by you.

Personal tabs can be accessed anytime from any device, even offline.
Learn more »
comments
print report bad tab
guest
You may want to rate the tab now too:
select rating
Wanna post a correction for this tab? Suggest correction