Oops, an error
Loading. Please wait.

Limelight Acoustic tab

229 views 1 this week
no commentswrite comment
1 2 3 4 5
1 last vote to show rating
add to favorites
×
Save as Personal and add changes to this tab that will be seen only by you. Learn more ›
×
You can save this tab as Personal to edit and correct it or add notes. All changes will be seen only by you. Learn more »
launch autoscroll
font size
0
reset
how to read this tab
guitar tuner
edit
Autoscroll
slow
fast
+/-
esc
set tempo
stop
Limelight - Tori Kelly  Guitar tab
I couldn't find a tab anywhere for this song. its not perfect but still sounds nice. Lyrics at bottom of tab
No Capo

[Intro]
e|---------------------------------------------------------------------------|
B|---------4----------------9------------4------------9----------------------|
G|------5---------------10-------------5-----------10------------------------|
D|---------------------------------------------------------------------------|
A|--3--------------8--------------3------------8-----------------------------|
E|---------------------------------------------------------------------------|

[Verse]
e|---------------------------------------------------------------------------|
B|--------4----------9---------4----------9---------4----------9-------------|
G|------5---------10---------5----------10--------5---------10---------------|
D|---------------------------------------------------------------------------|
A|--3---------8----------3----------8---------3---------8--------------------|
E|---------------------------------------------------------------------------|

e|--------------------|
B|---------11---------|
G|-----10-------10----|
D|--8-----------------|
A|--------------------|
E|--------------------|

[Chorus]
    (Cm)   (D#)   (A#)  (Fm)   
e|---3------3------1------1------|
B|---4------4------3------1------|
G|---5------4------3------1------|   repeat 3 times
D|---5------1------3------3------|
A|------------------------3------|
E|------------------------1------|

    (Cm)   (D#)   (A#)
e|---3------3------1-------------|
B|---4------4------3-------------|
G|---5------4------3-------------|
D|---5------1------3-------------|
A|-------------------------------|
E|-------------------------------|

[Outro/Final Chorus]
    (Cm)   (D#)   (A#)  (Fm)   
e|---3------3------1------1------|
B|---4------4------3------1------|
G|---5------4------3------1------|   repeat 4 times
D|---5------1------3------3------|
A|------------------------3------|
E|------------------------1------|

    (Cm)      
e|---3-------|
B|---4-------|
G|---5-------|  Let chord fade out
D|---5-------| 
A|-----------|
E|-----------|

[Lyrics]

[Verse 1]
Can’t take the pressure
 You start to wonder,
 How did this enter your life?
 All the attention,
 Have you forgotten? 
 What does normal taste like?
 Woahhh,

[Verse 2]
 Gets under your skin
 But you’re the one who let them in
 Flashing lights in your face
 Welcome to the circus,
 Is it all worth it?
 You begin to go insane

[Chorus]
When did you start to lose your mind?
 When did you hear the voices, 
 Telling you to run away from all of the madness?
 Are you satisfied?

[Verse 3]
Brush off the ashes,
 And smile for the cameras
 While you’re wearing your mask
 You do what’s expected
 So disconnected,
 Your world is spinning too fast

[Chorus]
When did you start to lose your mind?
 When did you hear the voices telling you to run,
 Away from all of the madness?
 Are you satisfied?

[Bridge]
Isn’t this what you wanted?
 Isn’t this what you wanted?
 Isn’t this what you wanted? oooh,

[Chorus]
 When did you start to lose your mind?
 When did you hear the voices telling you to run,
 Away from all of the madness?

 When did you start to lose your mind?
 When did you hear the voices telling you to run,
 Away from all of the madness?
 Are you satisfied?

 You’re in the LIMELIGHT.

            
            
Suggest correction
Creating personal tab
Creating personal tab
You can edit any tab online and save it as your Personal.

You can edit, replace or remove any tab part or add personal notes – all changes will be seen only by you.

Personal tabs can be accessed anytime from any device, even offline.
Learn more »
Give kudos to tab author, rate the tab!
1 2 3 4 5
comments
print report bad tab
guest
Wanna post a correction for this tab? Suggest correction