Oops, an error
Loading. Please wait.

Treasure tab

version 2
version 2

Whole song

412 views 1 this week
no commentswrite comment
1 2 3 4 5
1 last vote to show rating
add to favorites
×
Save as Personal and add changes to this tab that will be seen only by you. Learn more ›
×
You can save this tab as Personal to edit and correct it or add notes. All changes will be seen only by you. Learn more »
launch autoscroll
font size
0
reset
how to read this tab
guitar tuner
edit
Autoscroll
slow
fast
+/-
esc
set tempo
stop
-------------------------------------------------------------------------------
                             Treasure - Tori Kelly
-------------------------------------------------------------------------------
Tuning: EADGBe
Capo 1th fret

Intro:
e|----------------------------------------------------------------|
B|----------------------------------------------------------------|
G|----------------------------------------------------------------|
D|-----------6-----------6------------------6-----------6---------|
A|-----4-----------4----------4-------4-----------4----------4----|
E|--5-----5-----5-----5-----5---5--5-----5-----5-----5-----5---5--|

e|----------------------------------------------------------------|
B|----------------------------------------------------------------|
G|----------------------------------------------------------------|
D|-----------4-----------4------------------4-----------4---------|
A|-----2-----------2----------2-------2-----------2----------2----|
E|--3-----3-----3-----3-----3---3--3-----3-----3-----3-----3---3--|

e|--------------------------------------------------------------------------------|
B|--------------------------------------------------------------------------------|
G|--------------------------------------------------------------------------------|
D|-------------11-------------11----------------------11-------------11-----------|
A|------9--------------9-------------9---------9--------------9-------------9-----|
E|--10-----10------10-----10------10---10--10-----10------10-----10------10---10--|

e|----------------------------------------------------------------|
B|----------------------------------------------------------------|
G|----------------------------------------------------------------|
D|-----------7-----------7------------------7-----------7---------|
A|-----5-----------5----------5-------5-----------5----------5----|
E|--6-----6-----6-----6-----6---6--6-----6-----6-----6-----6---6--|


Verse 1:
e|----------------------------------------------------------------|
B|----------------------------------------------------------------|
G|----------------------------------------------------------------|
D|-----------6-----------6------------------6-----------6---------|
A|-----4-----------4----------4-------4-----------4----------4----|
E|--5-----5-----5-----5-----5---5--5-----5-----5-----5-----5---5--|

e|----------------------------------------------------------------|
B|----------------------------------------------------------------|
G|----------------------------------------------------------------|
D|-----------4-----------4------------------4-----------4---------|
A|-----2-----------2----------2-------2-----------2----------2----|
E|--3-----3-----3-----3-----3---3--3-----3-----3-----3-----3---3--|

e|--------------------------------------------------------------------------------|
B|--------------------------------------------------------------------------------|
G|--------------------------------------------------------------------------------|
D|-------------11-------------11----------------------11-------------11-----------|
A|------9--------------9-------------9---------9--------------9-------------9-----|
E|--10-----10------10-----10------10---10--10-----10------10-----10------10---10--|

e|----------------------------------------------------------------|
B|----------------------------------------------------------------|
G|----------------------------------------------------------------|
D|-----------7-----------7------------------7-----------7---------|
A|-----5-----------5----------5-------5-----------5----------5----|
E|--6-----6-----6-----6-----6---6--6-----6-----6-----6-----6---6--|
I was not waiting for your love
Before it was all on this shore
Darling, I never really get
This feeling in my chest


Chorus:
e|----------------------------------------------------------------|
B|----------------------------------------------------------------|
G|----------------------------------------------------------------|
D|-----------6-----------6------------------6-----------6---------|
A|-----4-----------4----------4-------4-----------4----------4----|
E|--5-----5-----5-----5-----5---5--5-----5-----5-----5-----5---5--|

e|----------------------------------------------------------------|
B|----------------------------------------------------------------|
G|----------------------------------------------------------------|
D|-----------4-----------4------------------4-----------4---------|
A|-----2-----------2----------2-------2-----------2----------2----|
E|--3-----3-----3-----3-----3---3--3-----3-----3-----3-----3---3--|

e|--------------------------------------------------------------------------------|
B|--------------------------------------------------------------------------------|
G|--------------------------------------------------------------------------------|
D|-------------11-------------11----------------------11-------------11-----------|
A|------9--------------9-------------9---------9--------------9-------------9-----|
E|--10-----10------10-----10------10---10--10-----10------10-----10------10---10--|

e|----------------------------------------------------------------|
B|----------------------------------------------------------------|
G|----------------------------------------------------------------|
D|-----------7-----------7------------------7-----------7---------|
A|-----5-----------5----------5-------5-----------5----------5----|
E|--6-----6-----6-----6-----6---6--6-----6-----6-----6-----6---6--|
It's a new day to discover
So many things to uncover
Even when the tide is high
Out here it's just you and I
Perfect how we fit together
Being around you is a pleasure
Like the way gold lasts forever
I feel like I found my treasure


Verse 2:
e|----------------------------------------------------------------|
B|----------------------------------------------------------------|
G|----------------------------------------------------------------|
D|-----------6-----------6------------------6-----------6---------|
A|-----4-----------4----------4-------4-----------4----------4----|
E|--5-----5-----5-----5-----5---5--5-----5-----5-----5-----5---5--|

e|----------------------------------------------------------------|
B|----------------------------------------------------------------|
G|----------------------------------------------------------------|
D|-----------4-----------4------------------4-----------4---------|
A|-----2-----------2----------2-------2-----------2----------2----|
E|--3-----3-----3-----3-----3---3--3-----3-----3-----3-----3---3--|

e|--------------------------------------------------------------------------------|
B|--------------------------------------------------------------------------------|
G|--------------------------------------------------------------------------------|
D|-------------11-------------11----------------------11-------------11-----------|
A|------9--------------9-------------9---------9--------------9-------------9-----|
E|--10-----10------10-----10------10---10--10-----10------10-----10------10---10--|

e|----------------------------------------------------------------|
B|----------------------------------------------------------------|
G|----------------------------------------------------------------|
D|-----------7-----------7------------------7-----------7---------|
A|-----5-----------5----------5-------5-----------5----------5----|
E|--6-----6-----6-----6-----6---6--6-----6-----6-----6-----6---6--|
When I first fell into those
Deep pools in your eyes
I thought I would be fine
'Cause I never really get
This feeling in my chest


Chorus:
It's a new day to discover
So many things to uncover
Even when the tide is high
Out here it's just you and I
Perfect how we fit together
Being around you is a pleasure
Like the way gold lasts forever
I feel like I found my treasure


Bridge:
e|---------|---------|-----------|---------|
B|--5---5--|--3---3--|--10---10--|--6---6--|
G|--6---6--|--4---4--|--11---11--|--7---7--|
D|--6---6--|--4---4--|--11---11--|--7---7--|
A|---------|---------|-----------|---------|
E|--5---5--|--3---3--|--10---10--|--6---6--|
I wasn't even looking for you
My skies were already blue
Now you're what I hold on to
These eyes are fixed on you
And in love we're meant to play
I could never turn away now


Chorus
e|----------------------------------------------------------------|
B|----------------------------------------------------------------|
G|----------------------------------------------------------------|
D|-----------6-----------6------------------6-----------6---------|
A|-----4-----------4----------4-------4-----------4----------4----|
E|--5-----5-----5-----5-----5---5--5-----5-----5-----5-----5---5--|

e|----------------------------------------------------------------|
B|----------------------------------------------------------------|
G|----------------------------------------------------------------|
D|-----------4-----------4------------------4-----------4---------|
A|-----2-----------2----------2-------2-----------2----------2----|
E|--3-----3-----3-----3-----3---3--3-----3-----3-----3-----3---3--|

e|--------------------------------------------------------------------------------|
B|--------------------------------------------------------------------------------|
G|--------------------------------------------------------------------------------|
D|-------------11-------------11----------------------11-------------11-----------|
A|------9--------------9-------------9---------9--------------9-------------9-----|
E|--10-----10------10-----10------10---10--10-----10------10-----10------10---10--|

e|----------------------------------------------------------------|
B|----------------------------------------------------------------|
G|----------------------------------------------------------------|
D|-----------7-----------7------------------7-----------7---------|
A|-----5-----------5----------5-------5-----------5----------5----|
E|--6-----6-----6-----6-----6---6--6-----6-----6-----6-----6---6--|
It's a new day to discover
So many things to uncover
Even when the tide is high
Out here it's just you and I
Perfect, now we fit together
Being around you is a pleasure
Like the way gold lasts forever
I feel like I found my treasure


Outro:
e|--------------------------------------------------------------------------------------|
B|--------------10--------------10------------------------10--------------10------------|
G|------11--------------11-------------11---------11--------------11-------------11-----|
D|----------11--------------11------------11----------11--------------11------------11--|
A|--------------------------------------------------------------------------------------|
E|--10--------------10--------------10--------10--------------10--------------10--------|

e|----------------------------------------------------------------|
B|-----------5-----------5------------------5-----------5---------|
G|-----6-----------6----------6-------6-----------6----------6----|
D|--------6-----------6---------6--------6-----------6---------6--|
A|----------------------------------------------------------------|
E|--5-----------5-----------5------5-----------5-----------5------|

e|----------------------------------------------------------------|
B|-----------8-----------8------------------8-----------8---------|
G|-----9-----------9----------9-------9-----------9----------9----|
D|--------9-----------9---------9--------9-----------9---------9--|
A|----------------------------------------------------------------|
E|--8-----------8-----------8------8-----------8-----------8------|

e|----------------------------------------------------------------|
B|-----------3-----------3------------------3-----------3---------|
G|-----4-----------4----------4-------4-----------4----------4----|
D|--------4-----------4---------4--------4-----------4---------4--|
A|----------------------------------------------------------------|
E|--3-----------3-----------3------3-----------3-----------3------| 4x


************************************

| /   slide up
| \   slide down
| h   hammer-on
| p   pull-off
| ~   vibrato
| +   harmonic
| x   Mute note
| b   Bend
| pb  Pre-bend
| br  Bend release
| pbr Pre-bend release
| brb Bend release bend

************************************

            
            
Suggest correction
Creating personal tab
Creating personal tab
You can edit any tab online and save it as your Personal.

You can edit, replace or remove any tab part or add personal notes – all changes will be seen only by you.

Personal tabs can be accessed anytime from any device, even offline.
Learn more »
Give kudos to tab author, rate the tab!
1 2 3 4 5
comments
print report bad tab
guest
You may want to rate the tab now too:
select rating
Wanna post a correction for this tab? Suggest correction