Oops, an error
Loading. Please wait.

Twilight tab

version 1
version 1

Whole song

668 views 1 this week
no commentswrite comment
1 2 3 4 5
3 more votes to show rating
add to favorites
×
Save as Personal and add changes to this tab that will be seen only by you. Learn more ›
×
You can save this tab as Personal to edit and correct it or add notes. All changes will be seen only by you. Learn more »
launch autoscroll
font size
0
reset
how to read this tab
guitar tuner
edit
Autoscroll
slow
fast
+/-
esc
set tempo
stop
Difficulty
 Guitar tuning D# G# C# F# A# d#   
                              Twilight


                                                                      Tourniquet
Eddy Connorz

      ^  ^  ^       ^  ^
      E  E  E    E  E  S  S S S E  
  E  E  E  E    E  E  S S S S
D#||-------------------------------|--0---------------------------|
A#||--5--6--8s--10--8--6s-5-L------|--1---------------------------|
F#||-------------------------------|------------------------------|
C#||--2--3--5s---7--5--3s-2-L-0----|--------------2g3--2--L-0-----|
G#||----------------------------3--|-----3--0--3--------------3-0-|
D#||-------------------------------|------------------------------|


              ^  ^  ^
  S S S S E   E  E  E   E  E     
 E  H.
------------------------------|---------------------|
-------------10--8--6s--5-----|---------------------|
----------0-------------------|---------------------|
----0-2-3-----7--5--3s--2--0--|---------------------|
--3---------------------------|--3--0--L------------|
------------------------------|---------------------|


             |--3--|
    E.  S E  S  S  S E  E  E  S S    E E  E  S S E  E  E  E
---------------------------0--0-0-|--------3--3-3-------------|
---------------------------1--1-1-|--------0--0-0-------0--1--|
--2g5---2------------------0--0-0-|--------0--0-0----2--------|
----------5--2h-5p-2----2--2--2-2-|---------------3-----------|
---------------------3------------|-----2------------0--2--3--|
----------------------------------|--3------------1-----------|


  S S S S S  S S  S E  E  E  S S    E  E  E  E  S S S S
----0-0-0-----------------0--0-0-|--------3--1--L-1-1-1-|
--L-1-1-1-----------------1--1-1-|--------0--1--L-1-1-1-|
----0-0-0-----------------0--0-0-|-----------2--L-2-2-2-|
----2-2-2------0h-2----2--2--2-2-|-----------3--L-3-3-3-|
--L-3-3-3-0h-3------3------------|-----2-----3--L-3-3-3-|
---------------------------------|--3--------1--L-1-1-1-|


  S S S S S  S S  S E  E  E  S S    E  E  E  S S E  E  E  E
--------------------------0--0-0-|--------3--3-3-------------|
--------------------------1--1-1-|--------0--0-0-------------|
----------2p-0------------0--0-0-|--------0--0-0-------------|
---------------0h-1----2--2--2-2-|---------------------------|
--------0-L---------3------------|-----2------------0--2--3--|
--0-1-3--------------------------|--3------------1-----------|


  S S S S S  S S  S E  E  E  S S    E  E  E  E  H
----0-0-0-L---------------0--0-0-|--------3--1--L--------|
----1-1-1-L---------------1--1-1-|--------0--1--L--------|
----0-0-0-L---------------0--0-0-|-----------2--L--------|
----2-2-2-L----0h-2----2--2--2-2-|-----------3--L--------|
--L-3-3-3-0h-3------3------------|-----2-----3--L--------|
---------------------------------|--3--------1--L--------|


    Q    S  S E  E  S S S  S S S    S S S S S S S S Q    E  S S
---------------------------------|------------------3----3--3-3-|
------------------------5h-6-----|----------6-------3----3--3-3-|
--0g2----0h-2-0-------7------7---|------7-----7-----4----4--4-4-|
--------------------7----------7-|----7---7-----7-L-5----5--5-5-|
-----------------5---------------|--5---------------5----5--5-5-|
---------------------------------|------------------3----3--3-3-|


  S S S S S S S S E  S S S  S S S    S S S S S S S S Q    Q
--3-3---3---3-3-------------------|------------------3----5----|
--3-3---3---3-3----------5h-6-----|----------6-------3----5----|
--4-4---4---4-4--------7------7---|------7-----7-----4----5----|
--5-5---5---5-5------7----------7-|----7---7-----7-L-5----7----|
--5-5---5---5-5---5---------------|--5---------------5----7----|
--3-3---3---3-3-------------------|------------------3----5----|


  Q    S  S S  S E  E  E  S S    E  E  E S S E  E  E  E
--7--------------------0--0-0-|--------3--3-3-------------|
--7--------------------1--1-1-|--------0--0-0-------------|
--7----2p-0------------0--0-0-|--------0--0-0-------------|
--9---------0h-1----2--2--2-2-|---------------------------|
--9--------------3------------|-----2------------0--2--3--|
--7---------------------------|--3------------1-----------|


  S S S S S  S S  S E  E  E  S S    E  E  E  E  S S S S
----0-0-0-L---------------0--0-0-|--------3--1--L-1-1-1-|
----1-1-1-L---------------1--1-1-|--------0--1--L-1-1-1-|
----0-0-0-L---------------0--0-0-|-----------2--L-2-2-2-|
----2-2-2-L----0h-2----2--2--2-2-|-----------3--L-3-3-3-|
--L-3-3-3-0h-3------3------------|-----2-----3--L-3-3-3-|
---------------------------------|--3--------1--L-1-1-1-|


  S S S S S  S S  S E  E  E  S S    E  E  E E  E  E  E  E
--------------------------0--0-0-|--------3-----------------|
--------------------------1--1-1-|--------0-----------------|
----------2p-0------------0--0-0-|--------------------------|
---------------0h-1----2--2--2-2-|--------------------------|
--------0-L---------3------------|-----2-----------0--2--3--|
--0-1-3--------------------------|--3--------3--1-----------|


  S S S S S  S S  S E  E  E  S S    E  E  E  E  H
----0-0-0-L---------------0--0-0-|--------3--1--L--------|
----1-1-1-L---------------1--1-1-|--------0--1--L--------|
----0-0-0-L---------------0--0-0-|-----------2--L--------|
----2-2-2-L----0h-2----2--2--2-2-|-----------3--L--------|
--L-3-3-3-0h-3------3------------|-----2-----3--L--------|
---------------------------------|--3--------1--L--------|


    Q    S  S E  E  S S S  S S S    S S S S S S S S Q    E  S S
-------------------------------5-|----------5-------3----3--3-3-|
------------------------5h-6-----|--6---------6-----3----3--3-3-|
--0g2----0h-2-0-------7----------|----7---7-----7-L-4----4--4-4-|
--------------------7--------7---|------7-----------5----5--5-5-|
-----------------5---------------|------------------5----5--5-5-|
---------------------------------|------------------3----3--3-3-|


  S S S S S S S S E  S S S  S S S    S S S S S S S S Q    E  S S
--3-3---3---3-3-----------------5-|----------5-------3----3--3-3-|
--3-3---3---3-3----------5h-6-L---|--6---------6-----3----3--3-3-|
--4-4---4---4-4--------7----------|----7---7-----7-L-4----4--4-4-|
--5-5---5---5-5------7--------7---|------7-----------5----5--5-5-|
--5-5---5---5-5---5---------------|------------------5----5--5-5-|
--3-3---3---3-3-------------------|------------------3----3--3-3-|


  S S S S S S S S E  S S S  S S S    S S S S S S S S Q    E  S S
----3---3---3-3-----------------5-|----------5-------3----3--3-3-|
----3---3---3-3----------5h-6-L---|--6---------6-----3----3--3-3-|
----4---4---4-4--------7----------|----7---7-----7-L-4----4--4-4-|
----5---5---5-5------7--------7---|------7-----------5----5--5-5-|
----5---5---5-5---5---------------|------------------5----5--5-5-|
----3---3---3-3-------------------|------------------3----3--3-3-|


  S S S S S S S S E  S S S  S S S    S S S S S S S S Q    Q
--3-3---3---3-3-----------------5-|----------5-------3----5----|
--3-3---3---3-3----------5h-6-L---|--6---------6-----3----5----|
--4-4---4---4-4--------7----------|----7---7-----7-L-4----5----|
--5-5---5---5-5------7--------7---|------7-----------5----7----|
--5-5---5---5-5---5---------------|------------------5----7----|
--3-3---3---3-3-------------------|------------------3----5----|


  Q    S  S S  S   Q    E    E     Q    E    E  Q    E    E
--7-----------------------------|----------------------------|
--7-----------------------------|----------------------------|
--7----2p-0------0g5----7--7g9--|--4----L--5g7--2----4--4g5--|
--9---------0h-1----------------|----------------------------|
--9-----------------------------|----------------------------|
--7-----------------------------|----------------------------|


  Q    E    E  Q    E  S S    Q    S  S E  Q    E  S  S
---------------------------|----------------------------|
-------------------------6-|--L----6p-3-----------------|
-----------------------5---|------------7--4----L--5s-7-|
--5----7--7g9--3----3------|----------------------------|
---------------------------|----------------------------|
---------------------------|----------------------------|


  Q    E    E  Q    E    E     Q    E  S  S Q    S  S S S
----------------------------|-----------------------------|
----------------------------|-----------------------------|
--4----L--5g7--5----7--7g9--|--4----L--7S-L-3----5s-7-L-L-|
----------------------------|-----------------------------|
----------------------------|-----------------------------|
----------------------------|-----------------------------|


  Q    E    E  Q    E    E     Q       S  S  S S Q    E   S  S
----------------------------|-----------------------------------|
----------------------------|-----------------------------------|
--2----4--4g5--1----4--4g5--|-----------------------------------|
----------------------------|--5----5g10--L-10-9-L----L--10-12s-|
----------------------------|-----------------------------------|
----------------------------|-----------------------------------|


  Q    E      E   Q     E      E     Q    E 
    E  Q    E      E
----------------------------------|--------------------------------|
----------------------------------|--------------------------------|
-----------9g10---9----10--10g12--|--7--------9g10--5----7----7g9--|
--9----L--10g12--10----12--12g14--|--9----L--10g12--7----9--10g10--|
----------------------------------|--------------------------------|
----------------------------------|--------------------------------|


  Q    E    E  Q    E  S   S     Q     E   E Q    E      E
-----------------------------|-------------------------------|
-----------------------5s-10-|---L----10---------------------|
--4----5--5g7--2----2--5s-10-|---L----10--10--7--------9g10--|
--5----7--7g9--3----3--------|------------12--9----L--10g12--|
-----------------------------|-------------------------------|
-----------------------------|-------------------------------|


  Q    E      E   Q     E      E     Q    E   S   S Q     S   S E
----------------------------------|--------------------------------|
----------------------------------|--------------------------------|
--7----L---9g10---9----10--10g12--|--7----L---9s-10-6-----9s-10-L--|
--9----L--10g12--10----12--12g14--|--9----L--10s-12-8----10s-12-L--|
----------------------------------|--------------------------------|
----------------------------------|--------------------------------|


  Q    E     E   Q     E      E      Q     S S  S  S Q     S   S E      Q
---------------------------------|----------------------------------|--------|
---------------------------------|----------------------------------|--------|
--5----7---7g9---7-----9---9g10--|---9----12-L-12-12-L----14h-16----|--12----|
--7----9--9g10--10----10--10g12--|--12----10-L-10--9-L----14h-15----|--12----|
---------------------------------|----------------------------------|--------|
---------------------------------|----------------------------------|--------|


  ^  ^  ^       ^  ^
  E  E  E    E  E  S  S S S E     
 E  E  E    E  E  S S S S
-------------------------------|--0---------------------------|
--5--6--8s--10--8--6s-5-L------|--1---------------------------|
-------------------------------|------------------------------|
--2--3--5s---7--5--3s-2-L-0----|--------------2g3--2--L-0-----|
----------------------------3--|-----3--0--3--------------3-0-|
-------------------------------|------------------------------|


              ^  ^  ^
  S S S S E   E  E  E   E  E     
 E  H.
------------------------------|---------------------|
-------------10--8--6s--5-----|---------------------|
----------0-------------------|---------------------|
----0-2-3-----7--5--3s--2--0--|---------------------|
--3---------------------------|--3--0--L------------|
------------------------------|---------------------|


             |--3--|
    E.  S E  S  S  S E  S S S  S S S    S S S S S S S S Q    E  S S
-----------------------------------5-|----------5-------3----3--3-3-|
----------------------------5h-6-----|--6---------6-----3----3--3-3-|
--2g5---2-----------------7----------|----7---7-----7-L-4----4--4-4-|
----------5--2h-5p-2----7--------7---|------7-----------5----5--5-5-|
---------------------5---------------|------------------5----5--5-5-|
-------------------------------------|------------------3----3--3-3-|


  S S S S S S S S E  S S S  S S S    S S S S S S S S Q    E  S S
--3-3---3---3-3-----------------5-|----------5-------3----3--3-3-|
--3-3---3---3-3----------5h-6-L---|--6---------6-----3----3--3-3-|
--4-4---4---4-4--------7----------|----7---7-----7-L-4----4--4-4-|
--5-5---5---5-5------7--------7---|------7-----------5----5--5-5-|
--5-5---5---5-5---5---------------|------------------5----5--5-5-|
--3-3---3---3-3-------------------|------------------3----3--3-3-|


  S S S S S S S S E  S S S  S S S    S S S S S S S S Q    E  S S
----3---3---3-3-----------------5-|----------5-------3----3--3-3-|
----3---3---3-3----------5h-6-L---|--6---------6-----3----3--3-3-|
----4---4---4-4--------7----------|----7---7-----7-L-4----4--4-4-|
----5---5---5-5------7--------7---|------7-----------5----5--5-5-|
----5---5---5-5---5---------------|------------------5----5--5-5-|
----3---3---3-3-------------------|------------------3----3--3-3-|


  S S S S S S S S E  S S S  S S S    S S S S S S S S Q    Q
--3-3---3---3-3-----------------5-|----------5-------3----5----|
--3-3---3---3-3----------5h-6-L---|--6---------6-----3----5----|
--4-4---4---4-4--------7----------|----7---7-----7-L-4----5----|
--5-5---5---5-5------7--------7---|------7-----------5----7----|
--5-5---5---5-5---5---------------|------------------5----7----|
--3-3---3---3-3-------------------|------------------3----5----|


  Q    S S S S E  E  E  E     E  E 
E  E  E  E  E  E
--2----3-2-----------2-----|--------------------------|
--3--------3-L-------3-----|--------2-----------------|
--4---------------2--------|--------2-----------------|
--4------------0--------0--|-----2--------5-----------|
--2------------------------|--0--------0--5--2--4--5--|
---------------------------|--------------3-----------|


  S S S S S  S S  S E  E  E  E     E  E  E  E  S S S S
----2-2-2-L---------------2-----|-----------3--L-3-3-3-|
----3-3-3-L---------------3-----|--------5--3--L-3-3-3-|
----2-2-2-L---------------2-----|--------6--4--L-4-4-4-|
----4-4-4-L----2h-4----4--------|--------7--5--L-5-5-5-|
--L-5-5-5-2h-5------5--------5--|-----7-----5--L-5-5-5-|
--------------------------------|--5--------3--L-3-3-3-|


  S S S S S  S S  S E  E  E  E     E  E E  E  E  E  E  E
--------------------------2-----|--------------------------|
--------------------------3-----|--------2-----------------|
-----------------------2--------|--------2-----------------|
----------5p-4------0--------0--|-----2--------------------|
--------2------0h-2-------------|--0--------0-----2--4--5--|
--2-3-5-------------------------|--------------3-----------|


  S S S S S  S S  S E  E  E  E     E  E  E  E  Q
----2-2-2-L---------------2-----|-----------3--L----|
----3-3-3-L---------------3-----|--------5--3--L----|
----2-2-2-L---------------2-----|--------6--4--L----|
----4-4-4-L----2h-4----4--------|--------7--5--L----|
--L-5-5-5-2h-5------5--------5--|-----7-----5-------|
--------------------------------|--5--------3--L----|


              Main Solo and Outro
  Q    Q      Q                  S S  S     S
----------------------------------------------|
--5----3--------------------------------------|
--5----2----4g9-----------------10-L-12-12g14-|
--5----4--------------------------------------|
--3-------------------------------------------|
----------------------------------------------|


   S  S  S  S  S     S  S  S  S  S  S  S  S  S  S  S
-----------------------------------------------------|
-----------------13g15-15-15-15-13-13-13-13-12-12-12-|
---L-12-12--L--L-------------------------------------|
-----------------------------------------------------|
-----------------------------------------------------|
-----------------------------------------------------|


                          |---3---|      |---3--|     |--3--|
   S     S  S  S Q     S  T   T   T S  S T   T  T S S T  T  T
----------------------12-10h-12p-10-8-10-8h-10p-8-7-8-7h-8p-7-|
--10-10g12--L-10-8--------------------------------------------|
--------------------------------------------------------------|
--------------------------------------------------------------|
--------------------------------------------------------------|
--------------------------------------------------------------|


      |--3--|
  S S T  T  T S S S S S S S S  S Q
--5-7-5h-7p-5-3-5-3-1-L-L-L-1h-3-1----|
--------------------------------------|
--------------------------------------|
--------------------------------------|
--------------------------------------|
--------------------------------------|


  PM PM  PMPM PM  PM
  S  S   S S  S   S S S   Q       S.S. S    S. S. S Q    S S S S S S S S
-----------------------------------------|-------------------------------|
----------------------6-6g8----8g10-8--6-|--5--------------------6-6-5-L-|
--------------------9--------------------|-----5-----------5---5---------|
-----------7--9--10----------------------|--------7-5----7---7-----------|
--7--8--10-------------------------------|-------------------------------|
-----------------------------------------|-------------------------------|


  Q        Q     S  S S  S  S S  S  S    S  S  S S  S  S  S  S H
-------10g12----12-10-8----10-8-------|--8------------------------------|
--L---------------------12------12-10-|----12-10-8-12-10----------------|
--------------------------------------|------------------10--L-L--------|
--------------------------------------|---------------------------------|
--------------------------------------|---------------------------------|
--------------------------------------|---------------------------------|


  W
-------------------||
-------------------||
-------------------||
--L----------------||
-------------------||
-------------------||


Duration Legend
---------------
W - whole
H - half
Q - quarter
E - 8th
S - 16th
T - 32nd
X - 64th
. - note dotted
|-n-|  - n-tuplets


Tablature Legend
----------------
L - tied note
x - dead note
g - grace note
(n) - ghost note
> - accentuded note
NH - natural harmonic
AH - artificial harmonic
TH - tapped harmonic
SH - semi harmonic
PH - pitch harmonic
h - hammer on
p - pull off
b - bend
br - bendRelease
pb - preBend
pbr - preBendRelease
brb - bendReleaseBend
\n/ - tremolo bar dip
\n - tremolo bar dive
-/n - tremolo bar Release up
/n\ - tremolo bar inverted dip
/n - tremolo bar return
-\n - tremolo bar Release down
S - shift slide
s - legato slide
/ -  slide into from below or out of upwards
\ -  slide into from above or out of downwards
~ - vibrato
W - wide vibrato
tr - trill
TP - tremolo picking
T - tapping
S - slap
P - pop
< - fade in
^ - brush up
v - brush down

            
            
Suggest correction
Creating personal tab
Creating personal tab
You can edit any tab online and save it as your Personal.

You can edit, replace or remove any tab part or add personal notes – all changes will be seen only by you.

Personal tabs can be accessed anytime from any device, even offline.
Learn more »
Give kudos to tab author, rate the tab!
1 2 3 4 5
comments
print report bad tab
guest
Wanna post a correction for this tab? Suggest correction