Oops, an error
Loading. Please wait.

Air Guitar tab

version 2
version 2

Whole song

Interactive

555 views 1 this week
no commentswrite comment
1 2 3 4 5
3 more votes to show rating
add to favorites
×
Save as Personal and add changes to this tab that will be seen only by you. Learn more ›
×
You can save this tab as Personal to edit and correct it or add notes. All changes will be seen only by you. Learn more »
launch autoscroll
font size
0
reset
how to read this tab
guitar tuner
edit
Autoscroll
slow
fast
+/-
esc
set tempo
stop
Towers of London
Air Guitar
Blood, Sweat, and Towers
Tabbed by Jelle P. (http://www.myspace.com/ducadospunk)


I noticed that the other tab on this site isn't completely correct, so I made these changes...

Intro A
Dirk
E|-----------|
B|-----------|
G|-555555555-|   repeat couple of times
D|-555555555-|
A|-333333333-|
E|-----------|

The Rev                       
|--------------------|     
|--------------------|
|--------------------|
|-12-12--10--9-9--10-|x3   
|-10-10--8---7-7--8--|
|--------------------|

|---------------------------------------|
|---------------------------------------|
|---------------------12b-12b-12b12b12b-|
|-12-12--10--9-9--10--10b-10b-10b10b10b-| (Last time)
|-10-10--8---7-7--8---------------------|
|---------------------------------------|

Intro B
|---------------|          |-------------------|                  
|---------------|          |-------------------|                 
|------------10-|          |-1010101010--77777-|                 
|-1010101010-10-| x4       |-1010101010--77777-| x1            
|-1010101010-8--|          |-8-8-8-8-8---55555-|               
|-8-8-8-8-8-----|          |-------------------|

Verse x2

|--------------------|       |-------------------|         
|--------------------|       |-------------------|       
|-10-----------------|       |-1010101010--77777-|  
|-10--10101010101010-| x3    |-1010101010--77777-| x1              
|-8---10101010101010-|       |-8-8-8-8-8---55555-|                              
|-----8-8-8-8-8-8-8--|       |-------------------|                          

Chorus
        
|---------------------------------------------------|       
|-1010101010--77777---5555-444-2---1010101010--77777|
|-1010101010--77777---5555-444-2---1010101010--77777|  x2   
|-8-8-8-8-8---55555---3333-222-0---8-8-8-8-8---55555|        
|---------------------------------------------------|

|-------------------|         
|-------------------|       
|-1010101010--77777-|  
|-1010101010--77777-| x1              
|-8-8-8-8-8---55555-|                              
|-------------------|     

Verse x2

Second time
|--------|    
|-10-----|  
|-10-10r-|  x3
|-8--10r-| 
|----8r--|

|-------------------|         
|-------------------|       
|-1010101010--77777-|  
|-1010101010--77777-| x1              
|-8-8-8-8-8---55555-|                              
|-------------------|                          

Bridge A

|-----------------------------------------------------|       
|-1010101010--77777---1212121212---99999---5555-444-2-|  
|-1010101010--77777---1212121212---99999---5555-444-2-|              
|-8-8-8-8-8---55555---1010101010---77777---3333-222-0-|      
|-----------------------------------------------------|

Chorus

Bridge B
|---------|
|---------|
|-4/5-555-|
|-4/5-555-|   x10
|-2/3-333-|
|---------|

Intro A

Bridge A

Chorus

Outro (The Rev)
|--------------------------------|
|--------------------------------|
|-12b12b12b12b12b12b12b12b12b12b-|
|-10b10b10b10b10b10b10b10b10b10b-|
|--------------------------------|
|--------------------------------|


If anyone has the lyrics, please send them to me (piet_plastuit@hotmail.com)

            
            
Suggest correction
Creating personal tab
Creating personal tab
You can edit any tab online and save it as your Personal.

You can edit, replace or remove any tab part or add personal notes – all changes will be seen only by you.

Personal tabs can be accessed anytime from any device, even offline.
Learn more »
Give kudos to tab author, rate the tab!
1 2 3 4 5
comments
print report bad tab
guest
Wanna post a correction for this tab? Suggest correction