Oops, an error
Loading. Please wait.

Porcelain intro tab

by Tow'rs
436 views 6 this week
no commentswrite comment
1 2 3 4 5
2 more votes to show rating
add to favorites
×
Save as Personal and add changes to this tab that will be seen only by you. Learn more ›
×
You can save this tab as Personal to edit and correct it or add notes. All changes will be seen only by you. Learn more »
launch autoscroll
font size
0
reset
how to read this tab
guitar tuner
edit
Autoscroll
slow
fast
+/-
esc
set tempo
stop
The first three notes of each chord change is an eighth note followed by two sixteenth notes (1 and-a ...) 
That is, the first three notes all fit into the first beat. The first note of the three notes is the longest.
The remaining notes in the chord are eighth notes.

The song is a waltz, so there are three beats per measure. In this song, there are two measures per chord
change.

"-" represents sixteenth note.


[Intro]

  C                                 Em      
e|----------------0----------------|----------------0----------------|
B|----1-----------------1--------1-|----0-----------------0--------0-|
G|---0------0-----------------0----|---0------0-----------------0----|
D|--2----2-----2-----2-----2-------|--2----2-----2-----2-----2-------|
A|3--------------------------------|2--------------------------------|
E|---------------------------------|---------------------------------|
  1 + 2  +  3  +  1  +  2  +  3  +  ...

  C                                 Em      
e|----------------0----------------|----------------0----------------|
B|----1-----------------1--------1-|----0-----------------0--------0-|
G|---0------0-----------------0----|---0------0-----------------0----|
D|--2----2-----2-----2-----2-------|--2----2-----2-----2-----2-------|
A|3--------------------------------|2--------------------------------|
E|---------------------------------|---------------------------------|

  Fadd9                             G                           3 ...
e|----------------3----------------|----------------3---------------|
B|----1--------------------------0-|----0-----------------------0---|
G|---2------2-----------2-----2----|---0------0-----------0---------|
D|3-3----3-----3-----3-----3-------|--0----0-----0-----0-----0------|
A|---------------------------------|2-------------------------------|
E|---------------------------------|--------------------------------|

  Fadd9                             G                     
e|----------------3----------------|----------------3---------------|
B|----1-----------------------1--0-|----0-----------------0--------0|
G|---2------2-----------2----------|---0------0-----------------0---|
D|3-3----3-----3-----3-----3-------|--0----0-----0-----0-----0------|
A|---------------------------------|2-------------------------------|
E|---------------------------------|--------------------------------|

            
            
Suggest correction
Creating personal tab
Creating personal tab
You can edit any tab online and save it as your Personal.

You can edit, replace or remove any tab part or add personal notes – all changes will be seen only by you.

Personal tabs can be accessed anytime from any device, even offline.
Learn more »
Give kudos to tab author, rate the tab!
1 2 3 4 5
comments
print report bad tab
guest
You may want to rate the tab now too:
select rating
Wanna post a correction for this tab? Suggest correction