Oops, an error
Loading. Please wait.

Noise Boys bass

214 views 1 this week
no commentswrite comment
1 2 3 4 5
3 more votes to show rating
add to favorites
×
Save as Personal and add changes to this tab that will be seen only by you. Learn more ›
×
You can save this tab as Personal to edit and correct it or add notes. All changes will be seen only by you. Learn more »
launch autoscroll
font size
0
reset
guitar tuner
edit
Autoscroll
slow
fast
+/-
esc
set tempo
stop
Intro              x4
G--------------------|
D--------------------|
A------868-6-6-6-6-8-|
E-6-6----------------|

Verse                           x4
G---------------------------------|
D---------------------------------|
A---------8-8-8-8-6-6-6-6-8-8-8-8-|
E-6-6-6-6-------------------------|

Main               x4
G--------------------|
D--------------------|
A------868-6-6-6-6-8-|
E-6-6----------------|
  
Verse                           x4
G---------------------------------|
D---------------------------------|
A---------8-8-8-8-6-6-6-6-8-8-8-8-|
E-6-6-6-6-------------------------|

Main               x4
G--------------------|
D--------------------|
A------868-6-6-6-6-8-|
E-6-6----------------|

Verse                           x4
G---------------------------------|
D---------------------------------|
A---------8-8-8-8-6-6-6-6-8-8-8-8-|
E-6-6-6-6-------------------------|

Bridge          x2              x4                   x4           x4  
G-----------------|---------------|--------------------|------------|
D-----------------|---------------|--------------------|---(hold)---|
A-----------------|---------8--6--|-------------10--8--|-6(6)(6)(6)-|
E-6-6-6-6-6-6-6-6-|-8-8-8-8-------|-10-10-10-10--------|------------|

Main               x8
G--------------------|
D--------------------|
A------868-6-6-6-6-8-|
E-6-6----------------|

            
            
Suggest correction
Creating personal tab
Creating personal tab
You can edit any tab online and save it as your Personal.

You can edit, replace or remove any tab part or add personal notes – all changes will be seen only by you.

Personal tabs can be accessed anytime from any device, even offline.
Learn more »
Give kudos to tab author, rate the tab!
1 2 3 4 5
comments
print report bad tab
guest
You may want to rate the tab now too:
select rating
Wanna post a correction for this tab? Suggest correction