Oops, an error
Loading. Please wait.

World Circus bass

version 1
version 1

Whole song

Interactive

by Toxik
487 views 3 this week
no commentswrite comment
1 2 3 4 5
2 more votes to show rating
add to favorites
×
Save as Personal and add changes to this tab that will be seen only by you. Learn more ›
×
You can save this tab as Personal to edit and correct it or add notes. All changes will be seen only by you. Learn more »
launch autoscroll
font size
0
reset
guitar tuner
edit
Autoscroll
slow
fast
+/-
esc
set tempo
stop
Author
Artist: Toxik
Album: World Circus
Song: World Circus
Bassist: Brian Bonini

Standard tuning (EADG)

b = bend
h = hammer-on
p = pull-off
H = harmonic
PH = pinch harmonic

              (0:31-0:34)
G|----------------|
D|----------------|
A|-3b-3b-3b3b3b---|
E|-------------0--|

                                     (0:34-0:36)
G|------------------------------------------|
D|-7-6-5h6p5h6-5-4-3-4--5-4-3h4p3h4-3-2-1-2-|
A|------------------------------------------|
E|------------------------------------------|

                              (0:36-0:38)
G|---------------------2---3---4---5--|
D|-2-110011-2-110011-1---2---3---4----|
A|------------------------------------|
E|------------------------------------|

                                    (0:39-0:41)
G|------------------------------------------|
D|-7-6-5h6p5h6-5-4-3-4--5-4-3h4p3h4-3-2-1-2-|
A|------------------------------------------|
E|------------------------------------------|

                             (0:41-0:43)
G|---------------------2---3---4---5--|
D|-2-110011-2-110011-1---2---3---4----|
A|------------------------------------|
E|------------------------------------|

          (0:43-0:44)
G|---------------|
D|---------------|
A|-0-------------|
E|---------------|

            (0:45)
G|----------------|
D|----------------|    (play really fast)
A|-8757585-5------|
E|--------8-85875-|

                    (0:46-0:47)
G|-------------------------|
D|-------------------------|
A|-001p01p01p01p01p01p01p0-|
E|-------------------------|

                             (0:47-0:50)
G|-------------------------------------|
D|-----3-----3-----3-----3-----3-----3-|
A|-000---000---000---000---000---000---|
E|-------------------------------------|

                    (0:50-0:51)
G|-------------------------|
D|-------------------------|
A|-001p01p01p01p01p01p01p0-|
E|-------------------------|

                             (0:51-0:53)
G|-------------------------------------|
D|----10----10----10----10----10----10-|
A|-000---000---000---000---000---000---|
E|-------------------------------------|

          (0:53-0:54)
G|---------------|
D|---------------|
A|-0-------------|
E|---------------|

            (0:55-0:56)
G|----------------|
D|----------------|    (play really fast)
A|-8757585-5------|
E|--------8-85875-|

  Verse                          (0:56-0:59)
                                  H H H
G|-----2-----3-----4-----5-----6--7------|
D|---1-----2-----3-----4-----5------7----|
A|-0-----1-----2-----3-----4----------7--|
E|---------------------------------------|

                                 (0:59-1:04)
G|--------------------------------------|
D|--------------------------------------|
A|-6--5-3--00000000000000000--6-6--5-5--|
E|--------------------------------------|

                               (1:04-1:07)
                                  H PH 
G|-----2-----3-----4-----5-----6--7-7---|
D|---1-----2-----3-----4-----5----------|
A|-0-----1-----2-----3-----4------------|
E|--------------------------------------|

                                 (1:08-1:13)
G|--------------------------------------|
D|--------------------------------------|
A|-6--5-3--00000000000000000--6-6--5-5--|
E|--------------------------------------|

                            2x (1:13-1:21)
G|---------4-----------------------|
D|-----2-4---3-2-1-----2-4---------|
A|-0-2-------------0-2-----0-0-2---|
E|---------------------------------|

  Chorus                    2x (1:21-1:30)
G|------------------------------------|
D|------------------------------------|
A|--------------------3-333333333333--|
E|--2-2222222-2-0-2-5-----------------|

                    (1:30-1:32)
G|-------------------------|
D|-------------------------|
A|-001p01p01p01p01p01p01p0-|
E|-------------------------|

                             (1:32-1:34)
G|-------------------------------------|
D|-----3-----3-----3-----3-----3-----3-|
A|-000---000---000---000---000---000---|
E|-------------------------------------|

                    (1:34-1:36)
G|-------------------------|
D|-------------------------|
A|-001p01p01p01p01p01p01p0-|
E|-------------------------|

                             (1:36-1:38)
G|-------------------------------------|
D|----10----10----10----10----10----10-|
A|-000---000---000---000---000---000---|
E|-------------------------------------|

          (1:38-1:39)
G|---------------|
D|---------------|
A|-0-------------|
E|---------------|

            (1:39-1:40)
G|----------------|
D|----------------|    (play really fast)
A|-8757585-5------|
E|--------8-85875-|

  Verse                          (1:40-1:43)
                                  H H H
G|-----2-----3-----4-----5-----6--7------|
D|---1-----2-----3-----4-----5------7----|
A|-0-----1-----2-----3-----4----------7--|
E|---------------------------------------|

                                 (1:43-1:48)
G|--------------------------------------|
D|--------------------------------------|
A|-6--5-3--00000000000000000--6-6--5-5--|
E|--------------------------------------|

                               (1:49-1:52)
                                  H H H
G|-----2-----3-----4-----5-----6----7---|
D|---1-----2-----3-----4-----5----7---7-|
A|-0-----1-----2-----3-----4------------|
E|--------------------------------------|

                                 (1:53-1:57)
G|--------------------------------------|
D|--------------------------------------|
A|-6--5-3--00000000000000000--6-6--5-5--|
E|--------------------------------------|

                            2x (1:57-2:05)
G|---------4-----------------------|
D|-----2-4---3-2-1-----2-4---------|
A|-0-2-------------0-2-----0-0-2---|
E|---------------------------------|

  Chorus                     (2:06-2:10)
G|----------------------------5-5-5-5-|
D|------------------------------------|
A|--------------------3-333333-3-3-3--|
E|--2-2222222-2-0-2-5-----------------|

                            (2:10-2:14)
G|------------------------------------|
D|------------------------------------|
A|--------------------3-333333333333--|
E|--2-2222222-2-0-2-5-----------------|

                                (2:14-2:18)
G|--------------------------------------|
D|--------------------------------------|
A|-1h2--2p1--3h4--4p3--1h2--2p1---------|
E|----00---00---00---00---00----001-001-|

                                           (2:18-2:22)
G|---------------------------------------------------|
D|---------------------------------------------------|
A|-1h2--2p1--3h4--4p3--1h2--2p1-----------------3-3--|
E|----00---00---00---00---00----1p0-0-1p0-0-010------|

                                (2:23-2:26)
G|--------------------------------------|
D|--------------------------------------|
A|-1h2--2p1--3h4--4p3--1h2--2p1---------|
E|----00---00---00---00---00----001-001-|

                                           (2:26-2:31)
G|---------------------------------------------------|
D|---------------------------------------------------|
A|-1h2--2p1--3h4--4p3--1h2--2p1-----------------3-3--|
E|----00---00---00---00---00----1p0-0-1p0-0-010------|

                                (2:31-2:34)
G|--------------------------------------|
D|--------------------------------------|
A|-1h2--2p1--3h4--4p3--1h2--2p1---------|
E|----00---00---00---00---00----001-001-|

                                           (2:34-2:40)
G|---------------------------------------------------|
D|---------------------------------------------------|
A|-1h2--2p1--3h4--4p3--1h2--2p1-----------------3-3--|
E|----00---00---00---00---00----1p0-0-1p0-0-010------|

                            x3 (2:40-2:51)
G|-----------------------------------|
D|-----------------------------------|
A|-----2-2------3-3-2-2-5-5----------|
E|-3-3------5-5-------------0-00-00--|

                               (2:51-2:55)
G|-----------------------------------|
D|-----------------------------------|
A|-----2-2------3-3-2-2-5-5----------|
E|-3-3------5-5-------------0--------|

                                       (2:56-3:01)
G|---------------------------------------------------|
D|---------------------------------------------------|
A|---------------------------------------------------|
E|-1-111-111-111-3-5-555-555-555-7-8-888-888-888-888-|

                             (3:01-3:06)
G|----------------------------------|
D|----------------------------------|
A|---------5-555-55--------7-777-77-|
E|-7-777-77--------8-888-88---------|

                                       (3:06-3:12)
G|---------------------------------------------------|
D|---------------------------------------------------|
A|---------------------------------------------------|
E|-1-111-111-111-3-5-555-555-555-7-8-888-888-888-888-|

                                                   (3:12-3:22)
G|-------------------------------------------------------------|
D|-------------------------------------------------------------|
A|---------5-555-55--------5-555-55--------5-555-550-0--RING---|
E|-7-777-77--------7-777-77--------7-777-77--------------------|

                                (3:22-3:26)
G|--------------------------------------|
D|--------------------------------------|
A|-1h2--2p1--3h4--4p3--1h2--2p1---------|
E|----00---00---00---00---00----001-001-|

                                 (3:26-3:29)
G|--------------------------------------|
D|--------------------------------------|
A|-1h2--2p1--3h4--4p3--1h2--2p1---------|
E|----00---00---00---00---00----001-----|

                                 (3:29-3:33)
G|--------------------------------------|
D|--------------------------------------|
A|-1h2--2p1--3h4--4p3--1h2--2p1---------|
E|----00---00---00---00---00----001-001-|

                                 (3:33-3:37)
G|--------------------------------------|
D|--------------------------------------|
A|-1h2--2p1--3h4--4p3--1h2--2p1---------|
E|----00---00---00---00---00----001-----|

           (3:37-3:40)
G|----------------|
D|----------------|
A|-3b-3b-3b3b3b---|
E|-------------0--|

                                     (3:40-3:42)
G|------------------------------------------|
D|-7-6-5h6p5h6-5-4-3-4--5-4-3h4p3h4-3-2-1-2-|
A|------------------------------------------|
E|------------------------------------------|

                              (3:42-3:44)
G|---------------------2---3---4---5--|
D|-2-110011-2-110011-1---2---3---4----|
A|------------------------------------|
E|------------------------------------|

                                    (3:44-3:47)
G|------------------------------------------|
D|-7-6-5h6p5h6-5-4-3-4--5-4-3h4p3h4-3-2-1-2-|
A|------------------------------------------|
E|------------------------------------------|

                             (3:47-3:49)
G|---------------------2---3---4---5--|
D|-2-110011-2-110011-1---2---3---4----|
A|------------------------------------|
E|------------------------------------|

          (3:49-3:50)
G|---------------|
D|---------------|
A|-0-------------|
E|---------------|

            (3:51)
G|----------------|
D|----------------|    (play really fast)
A|-8757585-5------|
E|--------8-85875-|

                    (3:51-3:52)
G|-------------------------|
D|-------------------------|
A|-001p01p01p01p01p01p01p0-|
E|-------------------------|

                             (3:53-3:55)
G|-------------------------------------|
D|-----3-----3-----3-----3-----3-----3-|
A|-000---000---000---000---000---000---|
E|-------------------------------------|

                    (3:56-3:57)
G|-------------------------|
D|-------------------------|
A|-001p01p01p01p01p01p01p0-|
E|-------------------------|

                             (3:57-3:59)
G|-------------------------------------|
D|----10----10----10----10----10----10-|
A|-000---000---000---000---000---000---|
E|-------------------------------------|

          (4:00)
G|---------------|
D|---------------|
A|-0-------------|
E|---------------|

            (4:01-4:02)
G|----------------|
D|----------------|    (play really fast)
A|-8757585-5------|
E|--------8-85875-|

  Verse                          (4:02-4:05)
                                  H H H
G|-----2-----3-----4-----5-----6--7------|
D|---1-----2-----3-----4-----5------7----|
A|-0-----1-----2-----3-----4----------7--|
E|---------------------------------------|

                                 (4:05-4:10)
G|--------------------------------------|
D|--------------------------------------|
A|-6--5-3--00000000000000000--6-6--5-5--|
E|--------------------------------------|

                               (4:10-4:13)
G|-----2-----3-----4-----5-----6--------|
D|---1-----2-----3-----4-----5----------|
A|-0-----1-----2-----3-----4------------|
E|--------------------------------0-0---|

                                 (4:14-4:18)
G|--------------------------------------|
D|--------------------------------------|
A|-6--5-3--00000000000000000--6-6--5-5--|
E|--------------------------------------|

                            (4:18-4:23)
G|---------4-----------------------|
D|-----2-4---3-2-1-----2-4---------|
A|-0-2-------------0-2-----0-0-2---|
E|---------------------------------|

                      (4:23-4:26)
G|---------4-----------------|
D|-----2-4---3-2-1-----2-4---|
A|-0-2-------------0-2-----0-|
E|---------------------------|

  Chorus                     (4:27-4:31)
G|----------------------------5-5-5-5-|
D|------------------------------------|
A|--------------------3-333333-3-3-3--|
E|--2-2222222-2-0-2-5-----------------|

                            (4:31-4:35)
G|------------------------------------|
D|------------------------------------|
A|--------------------3-333333333333--|
E|--2-2222222-2-0-2-5-----------------|

                                     (4:35-4:39)
G|------------------------------------------|
D|----------------------5-4-3h4p3h4-3-2-1-2-|
A|------------------------------------------|
E|-5-4-3h5p3h4-3-2-1-2----------------------|

                              (4:39-4:44)
G|---------------------2---3---4---5--|
D|-2-110011-2-110011-1---2---3---4----|
A|------------------------------------|
E|------------------------------------|

                                     (4:44-4:47)
G|------------------------------------------|
D|----------------------5-4-3h4p3h4-3-2-1-2-|
A|------------------------------------------|
E|-5-4-3h5p3h4-3-2-1-2----------------------|

                              (4:47-4:50)
G|---------------------2---3---4---5--|
D|-2-110011-2-110011-1---2---3---4----|
A|------------------------------------|
E|------------------------------------|

                         (4:50-4:54)
G|---------------------------|
D|---------------------------| Move your bass back and forth
A|-0--RING-------------------|  for a vibrato effect
E|---------------------------|

                  (4:54-4:57)
G|----7---8---9---10---|
D|--6---7---8---9---10-|
A|---------------------|
E|---------------------|

transcribed by Jesus

            
            
Suggest correction
Creating personal tab
Creating personal tab
You can edit any tab online and save it as your Personal.

You can edit, replace or remove any tab part or add personal notes – all changes will be seen only by you.

Personal tabs can be accessed anytime from any device, even offline.
Learn more »
Give kudos to tab author, rate the tab!
1 2 3 4 5
comments
print report bad tab
guest
You may want to rate the tab now too:
select rating
Wanna post a correction for this tab? Suggest correction