Oops, an error
Loading. Please wait.

Overtime tab

55 views 1 this week
no commentswrite comment
1 2 3 4 5
3 more votes to show rating
add to favorites
×
Save as Personal and add changes to this tab that will be seen only by you. Learn more ›
×
You can save this tab as Personal to edit and correct it or add notes. All changes will be seen only by you. Learn more »
launch autoscroll
font size
0
reset
how to read this tab
guitar tuner
edit
Autoscroll
slow
fast
+/-
esc
set tempo
stop
About this tab version
Complete tab of Overtime by Trace Bundy. It should be at least 95% accurate. Was this info helpful? Yes No
Artist: Trace Bundy
Title: Overtime

Tuning:DADGAD
Capo 2

Based on https://www.youtube.com/watch?v=yMJq5I1ySqo 
I highly recommend using the video as a guide, you can't really learn how to play this song unless you see how
Trace plays it. 

All notes on the lower strings denoted with a 't' are tapped using the right hand. Trace uses both his index 
and middle fingers to tap these notes. See the video to see what I mean.

Trace plays the song with a half-step delay which makes it sound awesome. 

D|---------------------------------------------------------------------------|   ¯|
A|---------------------------------------------------------------------------|    |
G|---------------------------------------------------------------------------|    |
D|------------------7-----p0-7-/-8-\-7p0--5-/-7-\-5p0------------------------|    |
A|--------5----8----------p0-8--------p0--8--------p0------------------------|    |
D|---7-----------------------------------------------------------------------|    |
     t         t             t            t                                       |
                                                                                  |   [x2]
D|---------------------------------------------------------------------------|    |
A|---------------------------------------------------------------------------|    |
G|---------------------------------------------------------------------------|    |
D|------------------5-----p0-5-/-7-\-5p0--3-/-5-\-3p0------------------------|    |
A|--------3----7----------p0-7--------p0--7--------p0------------------------|    |
D|---5-----------------------------------------------------------------------|    |  
     t         t             t            t                                      _|

D|---------------------------------------------------------------------------|   
A|---------------------------------------------------------------------------|    
G|-----------------7------p0-7-/-9-\-7p0--5-/-7-\-5p0------------------------| 
D|---------------------------------------------------------------------------|    
A|--------5----8----------p0-8--------p0--8--------p0------------------------|    
D|---7-----------------------------------------------------------------------| 
     t         t             t            t                                   

D|---------------------------------------------------------------------------|    
A|---------------------------------------------------------------------------|    
G|------------------5-----p0-5-/-7-\-5p0--3-/-5-\-3p0------------------------|    
D|---------------------------------------------------------------------------|    
A|--------3----7----------p0-7--------p0--7--------p0------------------------|    
D|---5-----------------------------------------------------------------------|    
     t         t             t            t                                      

D|---------------------------------------------------------------------------|   
A|---------------------------------------------------------------------------|    
G|---------------------------------------------------------------------------|    
D|------------------3-------------------------------3-------------------3----|    
A|--------1----5--------------------------1----5--------------1----5---------|    
D|---3-------------------------------3-------------------3-------------------|    
     t         t                     t         t         t         t              

D|----------------------|   
A|----------------------|    
G|----------------------|
D|------------------5---| 
A|--------3----7--------|  
D|---5------------------|   
     t         t            

D|---------------------------------------------------------------------------------7----|   ¯| 
A|-------------------------------------------------------------7------------------------|    |  
G|--------------------------------------6--------------------------------6--------------|    |    
D|------------------5-------------------------------------------------------------------|    |    
A|--------4----7--------------4----7-----------------4----7-------------------7---------|    |  
D|---7-------------------7----------------------7-------------------7-------------------|    |    
     t         t         t         t            t         t         t         t              |   
                                                                                             |  [Break]
D|------------------5-------------------5-------------------5---------------------------|    |   
A|--------------------------------------------------------------------------------------|    |    
G|--------6-------------------6-------------------6-------------------------------------|    |    
D|--------------------------------------------------------------------------------------|    |    
A|-------------7-------------------7-------------------7--------------------7-----------|    |    
D|---7-------------------7-------------------7--------------------7---------------------|    |     
     t         t         t         t         t         t          t         t               _|

[FADE OUT]    

D|-----------------------|-------------------------|   ¯| 
A|-----------------------|-------------------------|    | 
G|-----------------------|-------------------------|    |
D|------------------7----|--------------------5----|    | [x2]
A|--------5----8---------|----------3----7---------|    |
D|---7----------------[x4]-----5----------------[x4]   _|
     t         t               t         t    

D|-----------------------|-------------------------|-----------------------|-------------------------|   
A|-----------------------|-------------------------|-----------------------|-------------------------|  
G|-----------------------|-------------------------|-----------------------|-------------------------|    
D|------------------3----|--------------------5----|------------------3----|--------------------5----|  
A|--------1----5---------|----------3----7---------|--------1----5---------|----------3----7---------|    
D|---3----------------[x4]-----5----------------[x4]---3----------------[x4]-----5----------------[x2]   
     t         t               t         t             t         t               t         t    


[Break]


D|-------------------3-------------------5-------------------3-------------------3-|   ¯|
A|---------------------------------------------------------------------------------|    |
G|---------3-------------------3-------------------3-------------------3-----------|    |
D|--------------5-------------------5-------------------5-------------------5------|    |
A|---------------------------------------------------------------------------------|    |
D|----5-------------------5-------------------5-------------------5----------------|    |
      t         t         t         t         t         t         t         t           |
                                                                                        |   [x2]
D|-------------------2-------------------3-------------------2-------------------2-|    |
A|---------------------------------------------------------------------------------|    |
G|---------2-------------------2-------------------2-------------------2-----------|    |
D|--------------3-------------------3-------------------3-------------------3------|    |
A|---------------------------------------------------------------------------------|    |
D|----3-------------------3-------------------3-------------------3----------------|    |
      t         t         t         t         t         t         t         t          _|


D|-------------------7-------------------8-------------------7-------------------7-|   ¯|
A|---------------------------------------------------------------------------------|    |
G|---------7-------------------7-------------------7-------------------7-----------|    |
D|--------------8-------------------8-------------------8-------------------8------|    |
A|---------------------------------------------------------------------------------|    |
D|----8-------------------8-------------------8-------------------8----------------|    |
      t         t         t         t         t         t         t         t           |
                                                                                        |
D|-------------------5-------------------7-------------------5-------------------5-|    |
A|---------------------------------------------------------------------------------|    |
G|---------5-------------------5-------------------5-------------------5-----------|    |
D|--------------7-------------------7-------------------7-------------------7------|    |   [Bridge]
A|---------------------------------------------------------------------------------|    |
D|----7-------------------7-------------------7-------------------7----------------|    |
      t         t         t         t         t         t         t         t           |
                                                                                        |
D|-------------------3-------------------5-------------------3-------------------3-|    |
A|---------------------------------------------------------------------------------|    |
G|---------3-------------------3-------------------3-------------------3-----------|    |
D|--------------5-------------------5-------------------5-------------------5------|    |
A|---------------------------------------------------------------------------------|    |
D|----5-------------------5-------------------5-------------------5----------------|    |
      t         t         t         t         t         t         t         t          _|        

D|-------------------10------------------10------------------8-------------------10|    
A|---------------------------------------------------------------------------------|    
G|---------9-------------------9-------------------9-------------------9-----------|    
D|--------------10------------------10------------------10------------------10-----|    
A|---------------------------------------------------------------------------------|    
D|----10------------------10------------------10------------------10---------------|    
      t         t         t         t         t         t         t         t            


[Bridge]


D|------------------2----|--------------------2----|   ¯| 
A|-------------3---------|---------------4---------|    | 
G|-----------------------|-------------------------|    |
D|--------2--------------|----------2--------------|    |   [Break 2]
A|-----------------------|-------------------------|    |
D|---3----------------[x4]-----4----------------[x4]   _|
     t         t               t         t    
 
D|-----------------------------------------------------3----5-p-3---p-0------|
A|-------------------------------------------3----5--------------------------|
G|---------------------------------3----5------------------------------------|
D|-----------------------3----5----------------------------------------------|
A|-------------3----5--------------------------------------------------------|
D|---3----5---------------------------------------------------------------0--|
          t         t         t         t         t         t

[Drum on guitar with right hand while playing the next two phrases using the left hand]
D|---------3p0-------3p0-------2--------------------5p0-------5p0------------------------|
A|-----------------------------------------------------------------7p0--5p0--3p0--2p0----|
G|---------------------------------------------------------------------------------------|
D|---3p0-------3p0-------2p0------------------5p0-------5p0------------------------------|
A|---------------------------------------------------------------------------------------|
D|------------------------------------------------------------------------------------[x2]

D|---------3p0-------3p0-------2p0--------2p0-------5p0-------5p0------------------------|
A|-----------------------------------------------------------------7p0--5p0--3p0--2p0----|
G|---------------------------------------------------------------------------------------|
D|---3p0-------3p0-------2p0--------2p0-------5p0-------5p0------------------------------|
A|---------------------------------------------------------------------------------------|
D|------------------------------------------------------------------------------------[x2]


[Stop drumming and use both hands again]


D|------------------3-------------------2-------------------2-------------------5-|   ¯|
A|-----------------------------------------------------3-------------------3------|    |
G|--------2-------------------2---------------------------------------------------|    |
D|-------------3-------------------3--------------2-------------------2-----------|    |
A|-------------------------------------------3-------------------3----------------|    |
D|---3-------------------3--------------------------------------------------------|    |
     t         t         t         t         t         t         t         t           |
                                                                                       |   [x4]
D|------------------5-------------------------------------------------------------|    |
A|--------------------------------------7---------5---------3---------2-------p-0-|    |
G|--------4-------------------4---------------------------------------------------|    |
D|-------------5-------------------5-------------------7-------------------7------|    |
A|--------------------------------------------------------------------------------|    |
D|---5-------------------5-------------------7-------------------7----------------|    |
     t         t         t         t         t         t         t         t          _|

[Use only left hand, start drumming again on the 3rd repetition]

D|------3p0-------3p0-------2p0-------2p0-------5p0-------5p0--7p0--5p0--3p0--2p0-|
A|--------------------------------------------------------------------------------|
G|--3p0----------------2p0-----------------5p0------------------------------------|
D|-----------3p0-----------------2p0-----------------5p0--------------------------|
A|--------------------------------------------------------------------------------|
D|-----------------------------------------------------------------------------[x3]

D|------3p0-------3p0-------5p0-------5p0-------5p0-------5p0-------5p0-------5p0-|
A|--------------------------------------------------------------------------------|
G|--3p0----------------5p0-----------------6p0-------6p0-------6p0-------6p0------|
D|-----------3p0-----------------5p0----------------------------------------------|
A|--------------------------------------------------------------------------------|
D|--------------------------------------------------------------------------------|

[Back to using both hands]

D|-----------------------|-------------------------|-----------------------|-------------------------|   
A|-----------------------|-------------------------|-----------------------|-------------------------|  
G|-----------------------|-------------------------|-----------------------|-------------------------|    
D|------------------7----|--------------------5----|------------------3----|--------------------5----|  
A|--------5----8---------|----------3----7---------|--------1----5---------|----------3----7---------|    
D|---7----------------[x4]-----5----------------[x4]---3----------------[x4]-----5----------------[x2]   
     t         t               t         t             t         t               t         t    


[Break]


D|-------------------3-------------------7-------------------5-------------------3-|   ¯|
A|---------------------------------------------------------------------------------|    |
G|---------3-------------------3-------------------5-------------------3-----------|    |
D|--------------5-------------------5-------------------5-------------------5------|    |
A|---------------------------------------------------------------------------------|    |
D|----5-------------------5-------------------5-------------------5----------------|    |
      t         t         t         t         t         t         t         t           |
                                                                                        |   [x2]
D|-------------------2-------------------5-------------------3-------------------2-|    |
A|---------------------------------------------------------------------------------|    |
G|---------2-------------------2-------------------2-------------------2-----------|    |
D|--------------3-------------------3-------------------3-------------------3------|    |
A|---------------------------------------------------------------------------------|    |
D|----3-------------------3-------------------3-------------------3----------------|    |
      t         t         t         t         t         t         t         t          _|

D|-------------------7-------------------10------------------8-------------------7-|   
A|---------------------------------------------------------------------------------|    
G|---------7-------------------7-------------------7-------------------7-----------|    
D|--------------8-------------------8-------------------8-------------------8------|    
A|---------------------------------------------------------------------------------|    
D|----8-------------------8-------------------8-------------------8----------------|    
      t         t         t         t         t         t         t         t           
                                                                                        
D|-------------------5-------------------8-------------------7-------------------5-|    
A|---------------------------------------------------------------------------------|    
G|---------5-------------------5-------------------5-------------------5-----------|   
D|--------------7-------------------7-------------------7-------------------7------|   
A|---------------------------------------------------------------------------------|    
D|----7-------------------7-------------------7-------------------7----------------|    
      t         t         t         t         t         t         t         t           
                                                                                        
D|-------------------3-------------------7-------------------5-------------------3-|    
A|---------------------------------------------------------------------------------|    
G|---------3-------------------3-------------------5-------------------3-----------|    
D|--------------5-------------------5-------------------5-------------------5------|    
A|---------------------------------------------------------------------------------|    
D|----5-------------------5-------------------5-------------------5----------------|    
      t         t         t         t         t         t         t         t          


[Break 2]


D|-----------------------------------------------------3----5-p-3-p-0--------|
A|-------------------------------------------3----5--------------------------|
G|---------------------------------3----5------------------------------------|
D|-----------------------3----5----------------------------------------------|
A|-------------3----5--------------------------------------------------------|
D|---3----5------------------------------------------------------------------|
          t         t         t         t         t         t

[Drum with both hands]

D|----------|
A|----------|
G|----------|
D|----------|
A|----------|
D|---0--[x16]

D|---7----------------------5------------------------3-----------------------2-----------------------|
A|---------------------------------------------------------------------------------------------------|
G|---------------------------------------------------------------------------------------------------|
D|---------------------------------------------------------------------------------------------------|
A|---------------------------------------------------------------------------------------------------|
D|---0--0--0--0--0--0--0--0--0--0--0--0--0--0--0--0--0--0--0--0--0--0--0--0--0--0--0--0--0--0--0--0--|

D|---7p0---------7-----------5-----------------------3p0---------3-----------2--------------------2p0|
A|------8p0---8p0------------------7--------------------5p0---5p0------------------3--------3p04p0---|
G|---------7p0---------------------------5-----------------3p0---------------------------2-----------|
D|---------------------------------------------------------------------------------------------------|
A|---------------------------------------------------------------------------------------------------|
D|---0--0--0--0--0--0--0--0--0--0--0--0--0--0--0--0--0--0--0--0--0--0--0--0--0--0--0--0--0--0--0--0--|


D|---7p0-----------------7p0--10p0-8p0--7p0--5p0-----------------5p0--8p0--7p0--5p0--|   ¯|
A|--------8p0-------8p0---------------------------7p0-------7p0----------------------|    |
G|-------------7p0-------------------------------------5p0---------------------------|    |
D|-----------------------------------------------------------------------------------|    |
A|-----------------------------------------------------------------------------------|    |
D|---0----0----0----0----0----0----0----0----0----0----0----0----0----0----0----0----|    |
                                                                                          |   [x2]
D|---3p0-----------------3p0--7p0--5p0--3p0--2p0----------------------2p0--3p0--5p0--|    |
A|--------5p0-------5p0---------------------------3p0-------3p0--4p0-----------------|    |
G|-------------3p0-------------------------------------2p0---------------------------|    |
D|-----------------------------------------------------------------------------------|    |
A|-----------------------------------------------------------------------------------|    |
D|---0----0----0----0----0----0----0----0----0----0----0----0----0----0----0----0----|   _|

D|---7-------------------7----8/10-8----7----5-------------------5----7/8--7----5----|   
A|--------8---------8-----------------------------7---------7------------------------|    
G|-------------7---------------------------------------5-----------------------------|    
D|-----------------------------------------------------------------------------------|    
A|-----------------------------------------------------------------------------------|    
D|---7----7----7----7----7----7----7----7----5----5----5----5----5----5----5----5----|    
                                                                                          
D|---3-------------------3----7p0--5p0--3----2----------------------------------5----|    
A|--------5---------5-----------------------------3---------3p0------------5---------|    
G|-------------3---------------------------------------2--------------4--------------|    
D|---------------------------------------------------------------6-------------------|    
A|-----------------------------------------------------------------------------------|    
D|---3----3----3----3----3----3----3----3----2----2----2----2----0----0----0----0----| 

D|---7-------------------7----8/10-8----7----5-------------------5----7/8--7----5----|   
A|--------8---------8-----------------------------7---------7------------------------|    
G|-------------7---------------------------------------5-----------------------------|    
D|-----------------------------------------------------------------------------------|    
A|-----------------------------------------------------------------------------------|    
D|---7----7----7----7----7----7----7----7----5----5----5----5----5----5----5----5----|    
                                                                                          
D|---3-------------------3----7p0--5p0--3----2------------------------2----3----5----|    
A|--------5---------5-----------------------------3---------3p0--4-------------------|    
G|-------------3---------------------------------------2-----------------------------|    
D|-----------------------------------------------------------------------------------|    
A|-----------------------------------------------------------------------------------|    
D|---3----3----3----3----3----3----3----3----2----2----2----2----0----0----0----0----|    

D|---7----7----7--7--7--7----7~~~~-------------------------------------------|
A|---8----8----8--8--8--8----8~~~~-------------------------------------------|
G|---7----7----7--7--7--7----7~~~~-------------------------------------------|
D|---------------------------------------------------------------------------|
A|---------------------------------------------------------------------------|
D|--------------------------------0~~~~--------------------------------------|


************************************

| p  Pull-off
| /  Slide up
| \  Slide down
| ~  Vibrato

************************************

            
            
Suggest correction
Creating personal tab
Creating personal tab
You can edit any tab online and save it as your Personal.

You can edit, replace or remove any tab part or add personal notes – all changes will be seen only by you.

Personal tabs can be accessed anytime from any device, even offline.
Learn more »
Give kudos to tab author, rate the tab!
1 2 3 4 5
comments
print report bad tab
guest
You may want to rate the tab now too:
select rating
Wanna post a correction for this tab? Suggest correction