Oops, an error
Loading. Please wait.
We have Chord Pro version of Give Me One Reason.
It's the closest thing you can get to the original song and it has interactive parts. Check out the tab »
×
10,484 views 6 this week
no commentswrite comment
1 2 3 4 5
x 3
add to favorites
×
Save as Personal and add changes to this tab that will be seen only by you. Learn more ›
×
You can save this tab as Personal to edit and correct it or add notes. All changes will be seen only by you. Learn more »
launch autoscroll
font size
0
reset
guitar tuner
edit
Autoscroll
slow
fast
+/-
esc
set tempo
stop
Author
Difficulty
----------------------------------------------------------------------------
			     Give Me One Reason - Tracy Chapman
----------------------------------------------------------------------------

Tabbed By : lethalspartan
e-mail: leemanpace@bellsouth.net

Tuning: Standard

This bass-line is simple to learn and i have broken into 3 parts. This bass-line is used 
the song.
G|------------------------------------------|
D|------------------------------------------|
A|-------------0-2-4-44---------------------|
E|--0--2--2-22----------0-2--2--0-2--2------|

G|------------------------------------------|
D|------------------------------------------|
A|-0-2-2--2-0-2-4-44------------------------|
E|--------------------0-2--2--0-2--2--------|

G|------------------------------------------|
D|------------------------------------------|
A|----4-4-44-0-2-2-22-----------------------|
E|-2-0----------------0-2--2--0-2--2--------|

| /  slide up
| \  slide down
| h  hammer-on
| p  pull-off
| ~  vibrato
| +  harmonic
| x  Mute note
============================================================================

            
            
Suggest correction
Creating personal tab
Creating personal tab
You can edit any tab online and save it as your Personal.

You can edit, replace or remove any tab part or add personal notes – all changes will be seen only by you.

Personal tabs can be accessed anytime from any device, even offline.
Learn more »
Give kudos to tab author, rate the tab!
1 2 3 4 5
comments
print report bad tab
guest
You may want to rate the tab now too:
select rating
Wanna post a correction for this tab? Suggest correction