Oops, an error
Loading. Please wait.

Eggplant Acoustic tab

by Train
79 views 1 this week
no commentswrite comment
1 2 3 4 5
3 more votes to show rating
add to favorites
×
Save as Personal and add changes to this tab that will be seen only by you. Learn more ›
×
You can save this tab as Personal to edit and correct it or add notes. All changes will be seen only by you. Learn more »
launch autoscroll
font size
0
reset
how to read this tab
guitar tuner
edit
Autoscroll
slow
fast
+/-
esc
set tempo
stop
About this tab version
It is the acoustic guitar within the song played by Rob Hotchkiss. Was this info helpful? Yes No
For an idea of how to play it I've linked a video here:

https://youtu.be/0kUwn_qONKY

Eggplant by Train
Tuning: DADGAD                                                  Acoustic Guitar
Riff A

D|-----0-------------------------------------------------------|
A|-----3--3---2p0-0--0--------0-----0-0-----------0------------|
G|-----2--2---2p0-0--0h2------2-----2-2-----------2------------|
D|-----0--0-------------------0-----0-0-----------0------------|
A|--------------------------------3-------2p0------------------|
D|-0------------------------0-----------------3-0--------------|

Play Riff A 4x over verse 1

Scarlet your eyes cover your face
If I could dance or stay in this place
I would be king and you would be mine
I would be day and you would be...

[Chorus 1](strum these chords)
   Time.   Eggplant and caviar for you.  
D|--0-------------------0-----------0---------|
A|--2-------------------5-----------5---------|
G|--1-------------------0-----------7---------| 
D|--0-------------------0-----------7---------|
A|--x-------------------x-----------0---------|
D|--2-------------------7-----------0---------|

  For you.  For you.    For you.
D|-----0--------------------------------------|
A|-----7--------------------------------------|
G|-----9--------------------------------------| 
D|-----9--------------------------------------|
A|-----0--------------------------------------|
D|-----0--------------------------------------|

       Eggplant and caviar, for you.
D|-x----------------0-------------------------|
A|10----------------9-------------------------|
G|-7----------------7-------------------------| 
D|-0----------------0-------------------------|
A|-0----------------x-----------0-------------| Open D is beginning
D|-0----------------9-----------0-------------| of Riff A

Play Riff A 4x over verse 2

Hold up my wings 'cause you are the sky
Paint me by numbers and don't ask me why
I am in bloom and you are perfume
And you are perfume and you are

[Chorus 2]
      Eggplant and caviar for you.  
D|--0---------------0----------0----------------|
A|--2---------------5----------5----------------|
G|--1---------------0----------7----------------| 
D|--0---------------0----------7----------------|
A|--x---------------x----------0----------------|
D|--2---------------7----------0----------------|

  For you.  For you.  For you.
D|-----0----------------------------------------|
A|-----7----------------------------------------|
G|-----9----------------------------------------| 
D|-----9----------------------------------------|
A|-----0----------------------------------------|
D|-----0----------------------------------------|

       Eggplant and caviar, for you.
D|-x----------------0---------------------------|
A|10----------------9---------------------------|
G|-7----------------7---------------------------| 
D|-0----------------0---------------------------|
A|-0----------------x---------------------------|
D|-0----------------9---------------------------|   

   For you,  for you, for you
D|------0---------------------------------------|
A|-----11---------------------------------------|
G|------9---------------------------------------|
D|------0---------------------------------------|
A|------x---------------------------------------|
D|-----11---------------------------------------| 
 
        Ahhh   ahh  ahhh  ahh
D|---0-------------------------------------------------|
A|--10-------------------------------------------------|
G|---9-------------------------------------------------|
D|---0-------------------------------------------------|
A|---x-------------------------------------------------|
D|--10-------------------------------------------------| 

Bridge Play Riff A 4x

Apple pie or apple seed
All the mouths that I must feed
Cold sheets or tumbleweed
All the ones that I must need

I would be King and you would be mine
I would be nine and you would be... 

[Chorus 3](Same as chorus 2)
  Mother Time Eggplant and caviar for you.  
D|--0------------------------0----------0---------|
A|--2------------------------5----------5---------|
G|--1------------------------0----------7---------| 
D|--0------------------------0----------7---------|
A|--x------------------------x----------0---------|
D|--2------------------------7----------0---------|

For you, for you, for you
Eggplant and Caviar for you
for you, for you, for you ‒ ah, ah, ah, ah

Bridge Play Riff A 4X

Apple pie or apple seed
All the mouths that I must feed
Cold sheets or tumbleweed
All the ones that I must need
All the ones that I must need
All the ones that I must need
All the ones that I must need

All the ones that I must need
D|---------------------------0-------------|
A|---------------------------2-------------|
G|---------------------------1-------------| 
D|---------------------------0-------------|
A|----------------------0----x-------------|
D|-------------------0-------2-------------|


************************************

| p  Pull-off
| h  Hammer-on
| x  Dead note

************************************

            
            
Suggest correction
Creating personal tab
Creating personal tab
You can edit any tab online and save it as your Personal.

You can edit, replace or remove any tab part or add personal notes – all changes will be seen only by you.

Personal tabs can be accessed anytime from any device, even offline.
Learn more »
Give kudos to tab author, rate the tab!
1 2 3 4 5
comments
print report bad tab
guest
You may want to rate the tab now too:
select rating
Wanna post a correction for this tab? Suggest correction