Oops, an error
Loading. Please wait.

Ordinary tab

version 1
version 1

Whole song

by Train
1,415 views 1 this week
1 commentread comment
1 2 3 4 5
1 last vote to show rating
add to favorites
×
Save as Personal and add changes to this tab that will be seen only by you. Learn more ›
×
You can save this tab as Personal to edit and correct it or add notes. All changes will be seen only by you. Learn more »
launch autoscroll
font size
0
reset
how to read this tab
guitar tuner
edit
Autoscroll
slow
fast
+/-
esc
set tempo
stop
Ordinary- by Train
please rate
any corrections tell me at Dewie153@aol.com
0:33
e-----------------------------------------------------------------|
b-----------------------------------------------------------------|
g-----------------------------------------------------------------|
d--10-10-10---6-6-6---6-8---10-10-10--10-10-10--------------------|
a--10-10-10---6-6-6---6-8---10-10-10--10-10-10--------------------|
d--10-10-10---6-6-6---6-8---10-10-10--10-10-10--------------------|

e-----------------------------------------------------------------|
b-----------------------------------------------------------------|
g-----------------------------------------------------------------|
d--10-10-10---6-6-6---6-8---10-10-10---6-6-6----------------------|
a--10-10-10---6-6-6---6-8---10-10-10---6-6-6----------------------|
d--10-10-10---6-6-6---6-8---10-10-10---6-6-6----------------------|

e-----------------------------------------------------------------|
b-----------------------------------------------------------------|
g-----------------------------------------------------------------|
d--15-15-15-15-15-15-15-15---15-15--10--14-15-14------------------|
a--15-15-15-15-15-15-15-15---15-15--10----------------------------|
d--15-15-15-15-15-15-15-15---15-15--10----------------------------|

e-----------------------------------------------------------------|
b-----------------------------------------------------------------|
g-----------------------------------------------------------------|
d--15-15-15-15-15-15-15-15---15-15--10----------------------------|
a--15-15-15-15-15-15-15-15---15-15--10----------------------------|
d--15-15-15-15-15-15-15-15---15-15--10----------------------------|

e-----------------------------------------------------------------|
b-----------------------------------------------------------------|
g-----------------------------------------------------------------|
d-------------------------------------14-15-14--------------------|
a--10-10-10-10-10-10-10-10--12-12--15-----------------------------|
d--10-10-10-10-10-10-10-10--12-12--15-----------------------------|

repeat at 0:33
repeat again
then
3:06
e-----------------------------------------------------------------|
b-----------------------------------------------------------------|
g-----------------------------------------------------------------|
d-10-10-10--10-10-10--10-10-10--10-10-10--10---10-----------------|
a-10-10-10--10-10-10--10-10-10--10-10-10--10---10-----------------|
d-10-10-10--10-10-10--10-10-10--10-10-10--10---10-----------------|

e-----------------------------------------------------------------|
b-----------------------------------------------------------------|
g-----------------------------------------------------------------|
d--10-10-10--10-10-10--10-10-10--10-10-10-------------------------|
a--10-10-10--10-10-10--10-10-10--10-10-10-------------------------|
d--10-10-10--10-10-10--10-10-10--10-10-10-------------------------|

            
            
Suggest correction
Creating personal tab
Creating personal tab
You can edit any tab online and save it as your Personal.

You can edit, replace or remove any tab part or add personal notes – all changes will be seen only by you.

Personal tabs can be accessed anytime from any device, even offline.
Learn more »
Give kudos to tab author, rate the tab!
1 2 3 4 5
comments
print report bad tab
1 comment total.
0 reply
theAlts 52 Jul 16, 2008 01:14 AM

There are several things wrong with this tab. 1st, it's not in drop d, and if you watch the video you can see this. 2nd, those 101010s, are too high. So, sorry man, this is wrong.

guest
You may want to rate the tab now too:
select rating
Wanna post a correction for this tab? Suggest correction