Oops, an error
Loading. Please wait.

Christmas Eve Sarajevo tab

version 2
version 2
44,148 views 711 this week
2 commentsread comments
1 2 3 4 5
x 11
add to favorites
×
Save as Personal and add changes to this tab that will be seen only by you. Learn more ›
×
You can save this tab as Personal to edit and correct it or add notes. All changes will be seen only by you. Learn more »
launch autoscroll
font size
0
reset
how to read this tab
guitar tuner
edit
Autoscroll
slow
fast
+/-
esc
set tempo
stop
Author
Song:   Christmas Eve/Sarajevo 12/24 (Instrumental)
Artist: Trans-Siberian Orchestra
Album:  Christmas Eve And Other Stories

Intro
Guitar 1 Clean
e|--------||--3-2---||   |
B|--------||5-------||   |
G|------4-||------4-||x19|
D|--------||--------||   |
A|--------||--------||   |
E|--------||--------||   |


Verse

Guitar 1
E5 12 measures--E5 8 measures--E5 4 measures

e|-----------||  
B|8-----8----||  
G|---11---9--||X8
D|-----------||  
A|-----------||  
E|-----------||  

Guitar 2
E5 12 measures--E5 8 measures--E5 8 measures

e|-------------||
B|12--10-12----||
G|----------12-||x4
D|-------------||
A|-------------||
E|-------------||

Guitar 3
e|-------------||
B|5p0--0-5-0-0-||
G|-------------||x32
D|-------------||
A|-------------||
E|-------------||

Chorus
Guitar 1
e|12--12-12-10----|----------------|----------------|----------|
B|-------------13-|12--12-12-10----|10--10-10-12-10-|----------|
G|----------------|-------------12-|----------------|9--9-9-9--|
D|----------------|----------------|----------------|----------|
A|----------------|----------------|----------------|----------|
E|----------------|----------------|----------------|----------|

e|-------------------------|-------------------------|----------------------------|
B|------------8-10b12r10-8-|------------8-10b12r10-8-|------------8-------------8-|
G|-----8-9-11--------------|-----8-9-11--------------|-----8-9-11--------8-9-11---|
D|9-11---------------------|9-11---------------------|9-11----------9-11----------|
A|-------------------------|-------------------------|----------------------------|
E|-------------------------|-------------------------|----------------------------|

--------------------8-9-10-11-|12~~~|
------------8-11-12-----------|-----|
-----8-9-11-------------------|-----|
9-11--------------------------|-----|
------------------------------|-----|
------------------------------|-----|


e||------|--------|--------|--------|-------||------|--------|--------|--------|-------|----|
B||------|--------|--------|--------|-------||------|--------|--------|--------|-------|----|
G||----9-|9-------|--------|--------|-------||----9-|9-------|--------|--------|-------|----|
D||------|--12-10-|10-9----|9-------|-------||------|--12-10-|10-9----|9-------|-------|----|
A||------|--------|-----12-|--12-10-|10-9-7-||------|--------|-----12-|--12-10-|10-9-7-|7~~~|
E||------|--------|--------|--------|-------||------|--------|--------|--------|-------|----|

Guitar 2
e|-----------|-----------|-----------|-----------|
B|-----------|-----------|-----------|-----------|
G|-----------|-----------|-----------|-----------|
D|-----------|-----------|-----------|2--2-2-2-2-|
A|-----------|---------2-|3--3-3-5-3-|-----------|
E|0--0-0-0-2-|3--3-3-3---|-----------|-----------|

e|----|----|----------------------------|------------------17-18-19-20-21-22-|22b24~~~|
B|----|----|------------8-------------8-|------16-17-19-20-------------------|--------|
G|4~~~|4~~~|-----8-9-11--------8-9-11---|16-18-------------------------------|--------|
D|4~~~|4~~~|9-11----------9-11----------|------------------------------------|--------|
A|2~~~|2~~~|----------------------------|------------------------------------|--------|
E|----|----|----------------------------|------------------------------------|--------|

e||------|--------|--------|--------|-------||------|--------|--------|--------|-------|----|
B||------|--------|--------|--------|-------||------|--------|--------|--------|-------|----|
G||----9-|9-------|--------|--------|-------||----9-|9-------|--------|--------|-------|----|
D||------|--12-10-|10-9----|9-------|-------||------|--12-10-|10-9----|9-------|-------|----|
A||------|--------|-----12-|--12-10-|10-9-7-||------|--------|-----12-|--12-10-|10-9-7-|7~~~|
E||------|--------|--------|--------|-------||------|--------|--------|--------|-------|----|

Guitar 3
e|-----------|-----------|-----------|-----------|
B|-----------|-----------|-----------|-----------|
G|-----------|-----------|-----------|-----------|
D|-----------|-----------|-----------|2--2-2-2-2-|
A|-----------|---------2-|3--3-3-5-3-|-----------|
E|0--0-0-0-2-|3--3-3-3---|-----------|-----------|

e|--------|--------|--------|--------|--------|
B|--------|--------|--------|--------|--------|
G|4~~~~~~~|4~~~~~~~|4~~~4~~~|4~~~4~~~|9/------|
D|4~~~~~~~|4~~~~~~~|4~~~4~~~|4~~~4~~~|9/------|
A|2~~~~~~~|2~~~~~~~|2~~~2~~~|2~~~2~~~|7/------|
E|--------|--------|--------|--------|--------|

e|-------------||
B|5p0--0-5-0-0-||
G|-------------||x16
D|-------------||
A|-------------||
E|-------------||

vERSE 2
Guitar 1
Hold last note  |e|------------------------||
of Chorus until |B|15b17~r-15--------------||
silence.        |G|------------16b17~r-16--||x3
40 measures.    |D|------------------------||
                |A|------------------------||
                |E|------------------------||

Guitar 2
Hold last note  |e|19--17---------------||
of Chorus until |B|---------15b17~r-15--||
silence.        |G|---------------------||x2
44 measures.    |D|---------------------||
                |A|---------------------||
                |E|---------------------||

Guitar 3
e|-------------||
B|5p0--0-5-0-0-||
G|-------------||x52
D|-------------||
A|-------------||
E|-------------||


Chorus
Guitar 1
e|12--12-12-10----|----------------|----------------|----------|
B|-------------13-|12--12-12-10----|10--10-10-12-10-|----------|
G|----------------|-------------12-|----------------|9--9-9-9--|
D|----------------|----------------|----------------|----------|
A|----------------|----------------|----------------|----------|
E|----------------|----------------|----------------|----------|

e|-------------------------|-------------------------|
B|------------8-10b12r10-8-|------------8-10b12r10-8-|
G|-----8-9-11--------------|-----8-9-11--------------|
D|9-11---------------------|9-11---------------------|
A|-------------------------|-------------------------|
E|-------------------------|-------------------------|

e|----|-------------|----|b19r17p15-|----|15~~|22~~|22b24~~~~|
B|----|/20-19-20-17~|----|----------|17~~|----|----|---------|
G|----|-------------|----|----------|----|----|----|---------|
D|----|-------------|----|----------|----|----|----|---------|
A|----|-------------|----|----------|----|----|----|---------|
E|----|-------------|----|----------|----|----|----|---------|


Guitar 2
e|-----------|-----------|-----------|-----------|
B|-----------|-----------|-----------|-----------|
G|-----------|-----------|-----------|-----------|
D|-----------|-----------|-----------|2--2-2-2-2-|
A|-----------|---------2-|3--3-3-5-3-|-----------|
E|0--0-0-0-2-|3--3-3-3---|-----------|-----------|

e|-------------------------|---------------15-17b19r17-15-|
B|------------8-10b12r10-8-|------16-17-19----------------|
G|-----8-9-11--------------|16-18-------------------------|
D|9-11---------------------|------------------------------|
A|-------------------------|------------------------------|
E|-------------------------|------------------------------|

e|----|----------|----|----------|
B|----|----------|----|----------|
G|----|----------|----|----------|
D|----|----------|----|----------|
A|----|----------|----|----------|
E|----|3--2-3-0--|----|3--2-3-0--|


Guitar 3
e|-----------|-----------|-----------|-----------|
B|-----------|-----------|-----------|-----------|
G|-----------|-----------|-----------|-----------|
D|-----------|-----------|-----------|2--2-2-2-2-|
A|-----------|---------2-|3--3-3-5-3-|-----------|
E|0--0-0-0-2-|3--3-3-3---|-----------|-----------|

e|--------|--------|
B|--------|--------|
G|4~~~~~~~|4~~~~~~~|
D|4~~~~~~~|4~~~~~~~|
A|2~~~~~~~|2~~~~~~~|
E|--------|--------|

e|----|----------|----|----------|
B|----|----------|----|----------|
G|----|----------|----|----------|
D|----|----------|----|----------|
A|----|----------|----|----------|
E|----|3--2-3-0--|----|3--2-3-0--|


Chorus
Guitar 1
e|12--12-12-10----|----------------|----------------|----------|
B|-------------13-|12--12-12-10----|10--10-10-12-10-|----------|
G|----------------|-------------12-|----------------|9--9-9-9--|
D|----------------|----------------|----------------|----------|
A|----------------|----------------|----------------|----------|
E|----------------|----------------|----------------|----------|

e|-------------------------|-------------------------|----------------------------|
B|------------8-10b12r10-8-|------------8-10b12r10-8-|------------8-------------8-|
G|-----8-9-11--------------|-----8-9-11--------------|-----8-9-11--------8-9-11---|
D|9-11---------------------|9-11---------------------|9-11----------9-11----------|
A|-------------------------|-------------------------|----------------------------|
E|-------------------------|-------------------------|----------------------------|

--------------------8-9-10-11-|
------------8-11-12-----------|
-----8-9-11-------------------|
9-11--------------------------|
------------------------------|
------------------------------|

e|----|----|----|----|17b19~~~~|17b19~~~~|17b19~~~~|17b19~~~~|
B|----|----|----|----|---------|---------|---------|---------|
G|9~~~|7~~~|5~~~|4~~~|---------|---------|---------|---------|
D|9~~~|7~~~|5~~~|4~~~|---------|---------|---------|---------|
A|7~~~|5~~~|3~~~|2~~~|---------|---------|---------|---------|
E|----|----|----|----|---------|---------|---------|---------|


Guitar 2
e|-----------|-----------|-----------|-----------|
B|-----------|-----------|-----------|-----------|
G|-----------|-----------|-----------|-----------|
D|-----------|-----------|-----------|2--2-2-2-2-|
A|-----------|---------2-|3--3-3-5-3-|-----------|
E|0--0-0-0-2-|3--3-3-3---|-----------|-----------|

e|----|----|----------------------------|------------------17-18-19-20-21-22-|
B|----|----|------------8-------------8-|------16-17-19-20-------------------|
G|4~~~|4~~~|-----8-9-11--------8-9-11---|16-18-------------------------------|
D|4~~~|4~~~|9-11----------9-11----------|------------------------------------|
A|2~~~|2~~~|----------------------------|------------------------------------|
E|----|----|----------------------------|------------------------------------|

e|22b24~~~~|22b24~~~~|22b24~~~~|22b24~~~~|22b24~~~~|22b24~~~~|22b24~~~~|22b24~~~~|
B|---------|---------|---------|---------|---------|---------|---------|---------|
G|---------|---------|---------|---------|---------|---------|---------|---------|
D|---------|---------|---------|---------|---------|---------|---------|---------|
A|---------|---------|---------|---------|---------|---------|---------|---------|
E|---------|---------|---------|---------|---------|---------|---------|---------|

Guitar 3
e|-----------|-----------|-----------|-----------|
B|-----------|-----------|-----------|-----------|
G|-----------|-----------|-----------|-----------|
D|-----------|-----------|-----------|2--2-2-2-2-|
A|-----------|---------2-|3--3-3-5-3-|-----------|
E|0--0-0-0-2-|3--3-3-3---|-----------|-----------|

e|--------|--------|--------|----------|
B|--------|--------|--------|----------|
G|4~~~~~~~|4~~~~~~~|4~~~4~~~|4~~~4~4~4~|
D|4~~~~~~~|4~~~~~~~|4~~~4~~~|4~~~4~4~4~|
A|2~~~~~~~|2~~~~~~~|2~~~2~~~|2~~~2~2~2~|
E|--------|--------|--------|----------|

e|----|----|----|----|----|----|----|----|
B|----|----|----|----|----|----|----|----|
G|9~~~|7~~~|5~~~|4~~~|9~~~|7~~~|5~~~|4~~~|
D|9~~~|7~~~|5~~~|4~~~|9~~~|7~~~|5~~~|4~~~|
A|7~~~|5~~~|3~~~|2~~~|7~~~|5~~~|3~~~|2~~~|
E|----|----|----|----|----|----|----|----|


Outro
Guitar 1
e|15p14p12----------------------------|---------------------------12h14h15-||
B|---------15p13p12-------------------|------------------12h13h15----------||
G|------------------14p12p11----------|---------11h12h14-------------------||x4
D|---------------------------14p12p10-|10h12h14----------------------------||
A|------------------------------------|------------------------------------||
E|------------------------------------|------------------------------------||

e|/12~\--|/14~\--|/15~\--|/17~\--|17b19~~~~~~|17b19~~~~|
B|-------|-------|-------|-------|-----------|---------|
G|-------|-------|-------|-------|-----------|---------|
D|-------|-------|-------|-------|-----------|---------|
A|-------|-------|-------|-------|-----------|---------|
E|-------|-------|-------|-------|-----------|---------|

Guitar 2
e|19p17p15----------------------------|---------------------------15h17h19-||
B|---------19p17p15-------------------|------------------15h17h19----------||
G|------------------17p16p14----------|---------14h16h17-------------------||x4
D|---------------------------17p16p14-|14h16h17----------------------------||
A|------------------------------------|------------------------------------||
E|------------------------------------|------------------------------------||

e|/15~\--|/17~\--|/19~\--|/22~\--|22b24~~~~~~|22b24~~~~|
B|-------|-------|-------|-------|-----------|---------|
G|-------|-------|-------|-------|-----------|---------|
D|-------|-------|-------|-------|-----------|---------|
A|-------|-------|-------|-------|-----------|---------|
E|-------|-------|-------|-------|-----------|---------|

Guitar 3
e|---||   |----|
B|---||   |----|
G|---||x12|----|
D|2~~||   |2---|
A|2~~||   |2---|
E|0~~||   |0---|

            
            
Suggest correction
Creating personal tab
Creating personal tab
You can edit any tab online and save it as your Personal.

You can edit, replace or remove any tab part or add personal notes – all changes will be seen only by you.

Personal tabs can be accessed anytime from any device, even offline.
Learn more »
comments
print report bad tab
2 comments total.
0 reply
JJBoy13 53 Nov 30, 2017 08:58 AM

Amazing transcription

0 reply
maximilianz 69 4 days ago

this is perfect!!!

guest
You may want to rate the tab now too:
select rating
Wanna post a correction for this tab? Suggest correction