Oops, an error
Loading. Please wait.

The Lost Christmas Eve bass

563 views 18 this week
no commentswrite comment
1 2 3 4 5
2 more votes to show rating
add to favorites
×
Save as Personal and add changes to this tab that will be seen only by you. Learn more ›
×
You can save this tab as Personal to edit and correct it or add notes. All changes will be seen only by you. Learn more »
launch autoscroll
font size
0
reset
guitar tuner
edit
Autoscroll
slow
fast
+/-
esc
set tempo
stop
Difficulty
I was messing around on my bass one day and pretty much figured out the song.
(Intro)
G|------------------------------------------------|
D|------------------------------------------------|
A|-----2~---0~--This part plays throughout most of the song
E|--------3~--------------------------------------|

(Chorus 1)
G|------------------------------------------------|
D|------------------------------------------------|
A|------------------------------------------------|
E|--0~--000000--2~--222222------------------------| (x2)

(Interlude-Verse 2)
G|------------------------------------------------|
D|------------------------------------------------|
A|--14~-------12~-----17--16--14~/10/2~---0~-2~---|
E|------15~-----------------------------3~--------|

(Second chorus)
G|------------------------------------------------|
D|------------------------------------------------|
A|------------------------------------------------|
E|---3~--333333--5~--555555--3~--333333--5~-------|
         ******      ******

("In the night of the dream...")
G|------------------------------------------------|
D|------------------------------------------------|
A|------------------------------------------------|
E|---7-3-5-7-3-5-7-3-5-7-3-5-333333-555555--------| (x4)

(Guitar Solo 1)
G|------------------------------------------------|
D|------------------------------------------------|
A|------------------------------------------------|
E|---7---7---7---7---333333--555555---------------| (x2)

(Guitar Solo 2)
G|------------------------------------------------|
D|------------------------------------------------|
A|------------------------------------------------|
E|--(333333--555555)(x4)--5-5--5---5----5------5~-|

Then repeat the intro till the song ends.
Well there yah have it folks!
God bless(:

            
            
Suggest correction
Creating personal tab
Creating personal tab
You can edit any tab online and save it as your Personal.

You can edit, replace or remove any tab part or add personal notes – all changes will be seen only by you.

Personal tabs can be accessed anytime from any device, even offline.
Learn more »
Give kudos to tab author, rate the tab!
1 2 3 4 5
comments
print report bad tab
guest
Wanna post a correction for this tab? Suggest correction