Oops, an error
Loading. Please wait.

Wizards In Winter bass

version 2
version 2

Whole song

Interactive

7,581 views 24 this week
no commentswrite comment
1 2 3 4 5
1 last vote to show rating
add to favorites
×
Save as Personal and add changes to this tab that will be seen only by you. Learn more ›
×
You can save this tab as Personal to edit and correct it or add notes. All changes will be seen only by you. Learn more »
launch autoscroll
font size
0
reset
guitar tuner
backing track
0:00
0:00
edit
Autoscroll
slow
fast
+/-
esc
set tempo
stop
Band: Trans-Siberian Orchestra
Song: Wizards In Winter
Album: The Lost Christmas Eve
Bassist: John Lee Middleton
Tuning: Drop D

The existing bass tab to Wizards In Winter looks and sounds very good and is a great
version but this is how it's played by Middleton. At some parts the rhythm is kinda tricky
tab but if you listen to the track it's not too difficult to pick up. Because there 
lyrics what is deemed the 'chorus' is down to interpretation but this is my take. Enjoy
please don't forget to rate!


INTRO (0:00)

G|--------------|--------------|--------------|--------------|
D|--------------|--------------|--------------|--------------|
A|-----2--------|------------2-|-----2--------|2-------------|
D|2-2----2-2--0-|5-5--0-5-5----|2-2----2-2--0-|--------------| X2


CHORUS 1 (0:13)

G|----------------|----------------|----------------|----------------|
D|----------------|----------------|----------------|----------------|
A|----------------|----------------|----------------|2---------------|
D|2-2-2-2-2-2-2-2-|5-5-5-5-5-5-5-5-|2-2-2-2-2-2-2-2-|----------------|

G|----------------|----------------|----------------|----------------|
D|----------------|----------------|----------------|----------------|
A|----------------|----------------|----------------|2---------------|
D|2-2-2-2-2-2-2-2-|5-5-5-5-5-5-5-5-|2-2-2-2-2-2-2-2-|----------------|

G|----------------|----------------|--------|
D|----------------|----------------|--------|
A|2---------------|2----2-2---2-2--|0-------|
D|----------------|----------------|---5--4-|


CHORUS 2 (0:31)

G|----------------|----------------|----------------|----------------|
D|----------------|----------------|----------------|----------------|
A|----------------|----------------|----------------|2---------------|
D|2-2-2-2-2-2-2-2-|5-5-5-5-5-5-5-5-|2-2-2-2-2-2-2-2-|----------------|

G|----------------|----------------|----------------|----------------|
D|----------------|----------------|----------------|----------------|
A|----------------|----------------|----------------|2---------------|
D|2-2-2-2-2-2-2-2-|5-5-5-5-5-5-5-5-|2-2-2-2-2-2-2-2-|----------------|

G|----------------|----------------|----------------|----------------|
D|----------------|----------------|----------------|----------------|
A|2---------------|2----2-2---2-2--|----------------|----------------|
D|----------------|----------------|----------------|----------------|


VERSE 1 (0:50)

G|----------------|----------------|----------------|----------------|
D|----------------|----------------|----------------|----------------|
A|----------------|----------------|----------------|----------------|
D|2-2-2-2-2-2-2-2-|2-2-2-2-2-2-2-2-|2-2-2-2-2-2-2-2-|2-2-2-2-2-2-2-2-|

G|----------------|----------------|----------------|----------------|
D|----------------|----------------|----------------|----------------|
A|----------------|----------------|----------------|----------------|
D|2-2-2-2-2-2-2-2-|2-2-2-2-2-2-2-2-|2-2-2-2-2-2-2-2-|2-2-2-2-2-2-2-2-|

G|----------------|----------------|----------------|----------------|
D|----------------|----------------|----------------|----------------|
A|----------------|----------------|----------------|----------------|
D|2-2-2-2-2-2-2-2-|2-2-2-2-2-2-2-2-|2-2-2-2-2-2-2-2-|2-2-2-2-2-2-2-2-|


PRE-CHORUS (1:09)

G|----------------|----------------|----------------|--------|
D|----------------|----------------|----------------|--------|
A|2---------------|2---------------|2----2-2---2-2--|0-------|
D|----------------|----------------|----------------|---5--4-|


CHORUS 3 (1:15)

G|----------------|----------------|----------------|----------------|
D|----------------|----------------|----------------|----------------|
A|----------------|----------------|----------------|2---------------|
D|2-2-2-2-2-2-2-2-|5-5-5-5-5-5-5-5-|2-2-2-2-2-2-2-2-|----------------|

G|----------------|----------------|----------------|----------------|
D|----------------|----------------|----------------|----------------|
A|----------------|----------------|----------------|2---------------|
D|2-2-2-2-2-2-2-2-|5-5-5-5-5-5-5-5-|2-2-2-2-2-2-2-2-|----------------|

G|----------------|----------------|----------------|----------------|
D|----------------|----------------|----------------|----------------|
A|2---------------|2---------------|----------------|----------------|
D|----------------|----------------|----------------|----------------|


VERSE 2 (1:39)

G|--------------|--------------|--------------|--------------|
D|--------------|--------------|--------------|--------------|
A|--------------|--------------|--------------|--------------|
D|2-2--2-2-2--2-|2-2--2-2-2--2-|2-2--2-2-2--2-|2-2--2-2-2--2-|

G|--------------|--------------|--------------|--------------|
D|--------------|--------------|--------------|--------------|
A|--------------|--------------|--------------|--------------|
D|2-2--2-2-2--2-|2-2--2-2-2--2-|2-2--2-2-2--2-|2-2--2-2-2--2-|

G|--------------|--------------|--------------|--------------|
D|--------------|--------------|--------------|--------------|
A|--------------|--------------|--------------|--------------|
D|2-2--2-2-2--2-|2-2--2-2-2--2-|2-2--2-2-2--2-|2-2--2-2-2--2-|

G|--------------|--------------|--------------|--------------|
D|--------------|--------------|--------------|--------------|
A|--------------|--------------|--------------|--------------|
D|2-2--2-2-2--2-|2-2--2-2-2--2-|2-2--2-2-2--2-|2-2--2-2-2--2-|


PRE-CHORUS (2:04)

G|----------------|----------------|----------------|----------------|
D|----------------|----------------|----------------|----------------|
A|2---------------|2---------------|2----2-2---2-2--|0---------------|
D|----------------|----------------|----------------|---5--4---------|


CHORUS 4 (2:11)

G|----------------|----------------|----------------|----------------|
D|----------------|----------------|----------------|----------------|
A|----------------|----------------|----------------|2---------------|
D|2-2-2-2-2-2-2-2-|5-5-5-5-5-5-5-5-|2-2-2-2-2-2-2-2-|----------------|

G|----------------|----------------|----------------|----------------|
D|----------------|----------------|----------------|----------------|
A|----------------|----------------|----------------|2---------------|
D|2-2-2-2-2-2-2-2-|5-5-5-5-5-5-5-5-|2-2-2-2-2-2-2-2-|----------------|

G|----------------|----------------|--------------|
D|----------------|----------------|--------------|
A|2---------------|2-------2-------|2---2---2---2-|
D|----------------|----------------|--------------|


CHORUS 5 (2:29)

G|----------------|----------------|----------------|----------------|
D|----------------|----------------|----------------|----------------|
A|----------------|----------------|----------------|----------------|
D|2-2-2-2-2-2-2-2-|5-5-5-5-5-5-5-5-|2-2-2-2-2-2-2-2-|5-5-5-5-5-5-5-5-|

G|----------------|----------------|----------------|----------------|
D|----------------|----------------|----------------|----------------|
A|----------------|----------------|----------------|----------------|
D|2-2-2-2-2-2-2-2-|5-5-5-5-5-5-5-5-|2-2-4-4-5-5-0-0-|2-2-4-4-5-5-0-0-|

G|----------------|----------------|
D|----------------|----------------|
A|----------------|----------------|
D|2-4-5-0-2-4-5-0-|2-4-5-0-2-4-5-0-|


OUTRO (2:45)

G|----------------|----------------|----------------|----------------|
D|----------------|----------------|----------------|----------------|
A|----------------|----------------|----------------|----------------|
D|2-2-2-2-2-2-2-2-|2-2-2-2-2-2-2-2-|2-2-2-2-2-2-2-2-|2-2-2-2-2-2-2-2-|

G|----------------|----------------|----------------|----------------|
D|----------------|----------------|----------------|----------------|
A|----------------|----------------|----------------|----------------|
D|2-------2-------|2-------2-------|2-------2-------|2-------2-------|

G|----------------|----------------|----------------|
D|----------------|----------------|----------------|
A|----------------|----------------|----------------|
D|2---------------|----------------|2---------------|

            
            
Suggest correction
Creating personal tab
Creating personal tab
You can edit any tab online and save it as your Personal.

You can edit, replace or remove any tab part or add personal notes – all changes will be seen only by you.

Personal tabs can be accessed anytime from any device, even offline.
Learn more »
Give kudos to tab author, rate the tab!
1 2 3 4 5
comments
print report bad tab
guest
You may want to rate the tab now too:
select rating
Wanna post a correction for this tab? Suggest correction